  0
SECTION
  2
HEADER
  9
$ACADVER
  1
AC1014
  9
$ACADMAINTVER
 70
     9
  9
$DWGCODEPAGE
  3
MAC-ROMAN
  9
$INSBASE
 10
0.0
 20
0.0
 30
0.0
  9
$EXTMIN
 10
1.000000000000000E+20
 20
1.000000000000000E+20
 30
1.000000000000000E+20
  9
$EXTMAX
 10
-1.000000000000000E+20
 20
-1.000000000000000E+20
 30
-1.000000000000000E+20
  9
$LIMMIN
 10
0.0
 20
0.0
  9
$LIMMAX
 10
12.0
 20
9.0
  9
$ORTHOMODE
 70
     0
  9
$REGENMODE
 70
     1
  9
$FILLMODE
 70
     1
  9
$QTEXTMODE
 70
     0
  9
$MIRRTEXT
 70
     1
  9
$DRAGMODE
 70
     2
  9
$LTSCALE
 40
1.0
  9
$OSMODE
 70
    37
  9
$ATTMODE
 70
     1
  9
$TEXTSIZE
 40
0.2
  9
$TRACEWID
 40
0.05
  9
$TEXTSTYLE
  7
STANDARD
  9
$CLAYER
  8
0
  9
$CELTYPE
  6
BYLAYER
  9
$CECOLOR
 62
   256
  9
$CELTSCALE
 40
1.0
  9
$DELOBJ
 70
     1
  9
$DISPSILH
 70
     0
  9
$DIMSCALE
 40
1.0
  9
$DIMASZ
 40
0.18
  9
$DIMEXO
 40
0.0625
  9
$DIMDLI
 40
0.38
  9
$DIMRND
 40
0.0
  9
$DIMDLE
 40
0.0
  9
$DIMEXE
 40
0.18
  9
$DIMTP
 40
0.0
  9
$DIMTM
 40
0.0
  9
$DIMTXT
 40
0.18
  9
$DIMCEN
 40
0.09
  9
$DIMTSZ
 40
0.0
  9
$DIMTOL
 70
     0
  9
$DIMLIM
 70
     0
  9
$DIMTIH
 70
     1
  9
$DIMTOH
 70
     1
  9
$DIMSE1
 70
     0
  9
$DIMSE2
 70
     0
  9
$DIMTAD
 70
     0
  9
$DIMZIN
 70
     0
  9
$DIMBLK
  1

  9
$DIMASO
 70
     1
  9
$DIMSHO
 70
     1
  9
$DIMPOST
  1

  9
$DIMAPOST
  1

  9
$DIMALT
 70
     0
  9
$DIMALTD
 70
     2
  9
$DIMALTF
 40
25.4
  9
$DIMLFAC
 40
1.0
  9
$DIMTOFL
 70
     0
  9
$DIMTVP
 40
0.0
  9
$DIMTIX
 70
     0
  9
$DIMSOXD
 70
     0
  9
$DIMSAH
 70
     0
  9
$DIMBLK1
  1

  9
$DIMBLK2
  1

  9
$DIMSTYLE
  2
STANDARD
  9
$DIMCLRD
 70
     0
  9
$DIMCLRE
 70
     0
  9
$DIMCLRT
 70
     0
  9
$DIMTFAC
 40
1.0
  9
$DIMGAP
 40
0.09
  9
$DIMJUST
 70
     0
  9
$DIMSD1
 70
     0
  9
$DIMSD2
 70
     0
  9
$DIMTOLJ
 70
     1
  9
$DIMTZIN
 70
     0
  9
$DIMALTZ
 70
     0
  9
$DIMALTTZ
 70
     0
  9
$DIMFIT
 70
     3
  9
$DIMUPT
 70
     0
  9
$DIMUNIT
 70
     2
  9
$DIMDEC
 70
     4
  9
$DIMTDEC
 70
     4
  9
$DIMALTU
 70
     2
  9
$DIMALTTD
 70
     2
  9
$DIMTXSTY
  7
STANDARD
  9
$DIMAUNIT
 70
     0
  9
$LUNITS
 70
     2
  9
$LUPREC
 70
     4
  9
$SKETCHINC
 40
0.1
  9
$FILLETRAD
 40
0.5
  9
$AUNITS
 70
     0
  9
$AUPREC
 70
     0
  9
$MENU
  1
.
  9
$ELEVATION
 40
0.0
  9
$PELEVATION
 40
0.0
  9
$THICKNESS
 40
0.0
  9
$LIMCHECK
 70
     0
  9
$CHAMFERA
 40
0.0
  9
$CHAMFERB
 40
0.0
  9
$CHAMFERC
 40
0.0
  9
$CHAMFERD
 40
0.0
  9
$SKPOLY
 70
     0
  9
$TDCREATE
 40
2457809.869432894
  9
$TDUPDATE
 40
2457809.869435428
  9
$TDINDWG
 40
0.0000000116
  9
$TDUSRTIMER
 40
0.0000000116
  9
$USRTIMER
 70
     1
  9
$ANGBASE
 50
0.0
  9
$ANGDIR
 70
     0
  9
$PDMODE
 70
     0
  9
$PDSIZE
 40
0.0
  9
$PLINEWID
 40
0.0
  9
$COORDS
 70
     1
  9
$SPLFRAME
 70
     0
  9
$SPLINETYPE
 70
     6
  9
$SPLINESEGS
 70
     8
  9
$ATTDIA
 70
     0
  9
$ATTREQ
 70
     1
  9
$HANDLING
 70
     1
  9
$HANDSEED
  5
181
  9
$SURFTAB1
 70
     6
  9
$SURFTAB2
 70
     6
  9
$SURFTYPE
 70
     6
  9
$SURFU
 70
     6
  9
$SURFV
 70
     6
  9
$UCSNAME
  2

  9
$UCSORG
 10
0.0
 20
0.0
 30
0.0
  9
$UCSXDIR
 10
1.0
 20
0.0
 30
0.0
  9
$UCSYDIR
 10
0.0
 20
1.0
 30
0.0
  9
$PUCSNAME
  2

  9
$PUCSORG
 10
0.0
 20
0.0
 30
0.0
  9
$PUCSXDIR
 10
1.0
 20
0.0
 30
0.0
  9
$PUCSYDIR
 10
0.0
 20
1.0
 30
0.0
  9
$USERI1
 70
     0
  9
$USERI2
 70
     0
  9
$USERI3
 70
     0
  9
$USERI4
 70
     0
  9
$USERI5
 70
     0
  9
$USERR1
 40
0.0
  9
$USERR2
 40
0.0
  9
$USERR3
 40
0.0
  9
$USERR4
 40
0.0
  9
$USERR5
 40
0.0
  9
$WORLDVIEW
 70
     1
  9
$SHADEDGE
 70
     3
  9
$SHADEDIF
 70
    70
  9
$TILEMODE
 70
     1
  9
$MAXACTVP
 70
    64
  9
$PINSBASE
 10
0.0
 20
0.0
 30
0.0
  9
$PLIMCHECK
 70
     0
  9
$PEXTMIN
 10
1.000000000000000E+20
 20
1.000000000000000E+20
 30
1.000000000000000E+20
  9
$PEXTMAX
 10
-1.000000000000000E+20
 20
-1.000000000000000E+20
 30
-1.000000000000000E+20
  9
$PLIMMIN
 10
0.0
 20
0.0
  9
$PLIMMAX
 10
12.0
 20
9.0
  9
$UNITMODE
 70
     0
  9
$VISRETAIN
 70
     1
  9
$PLINEGEN
 70
     0
  9
$PSLTSCALE
 70
     1
  9
$TREEDEPTH
 70
  3020
  9
$PICKSTYLE
 70
     1
  9
$CMLSTYLE
  2
STANDARD
  9
$CMLJUST
 70
     0
  9
$CMLSCALE
 40
1.0
  9
$PROXYGRAPHICS
 70
     1
  9
$MEASUREMENT
 70
     0
  0
ENDSEC
  0
SECTION
  2
CLASSES
  0
CLASS
  1
ACDBDICTIONARYWDFLT
  2
AcDbDictionaryWithDefault
  3
ObjectDBX Classes
 90
        0
280
     0
281
     0
  0
CLASS
  1
VISUALSTYLE
  2
AcDbVisualStyle
  3
ObjectDBX Classes
 90
     4095
280
     0
281
     0
  0
CLASS
  1
MATERIAL
  2
AcDbMaterial
  3
ObjectDBX Classes
 90
     1153
280
     0
281
     0
  0
CLASS
  1
SCALE
  2
AcDbScale
  3
ObjectDBX Classes
 90
     1153
280
     0
281
     0
  0
CLASS
  1
TABLESTYLE
  2
AcDbTableStyle
  3
ObjectDBX Classes
 90
     4095
280
     0
281
     0
  0
CLASS
  1
MLEADERSTYLE
  2
AcDbMLeaderStyle
  3
ACDB_MLEADERSTYLE_CLASS
 90
     4095
280
     0
281
     0
  0
CLASS
  1
SUN
  2
AcDbSun
  3
SCENEOE
 90
     1153
280
     0
281
     0
  0
CLASS
  1
DICTIONARYVAR
  2
AcDbDictionaryVar
  3
ObjectDBX Classes
 90
        0
280
     0
281
     0
  0
CLASS
  1
XRECORD
  2
AcDbXrecord
  3
ObjectDBX Classes
 90
        0
280
     0
281
     0
  0
CLASS
  1
LWPOLYLINE
  2
AcDbPolyline
  3
ObjectDBX Classes
 90
        0
280
     0
281
     1
  0
CLASS
  1
HATCH
  2
AcDbHatch
  3
ObjectDBX Classes
 90
        0
280
     0
281
     1
  0
CLASS
  1
ACDBPLACEHOLDER
  2
AcDbPlaceHolder
  3
ObjectDBX Classes
 90
        0
280
     0
281
     0
  0
CLASS
  1
LAYOUT
  2
AcDbLayout
  3
ObjectDBX Classes
 90
        0
280
     0
281
     0
  0
ENDSEC
  0
SECTION
  2
TABLES
  0
TABLE
  2
VPORT
  5
8
102
{ACAD_XDICTIONARY
360
176
102
}
330
0
100
AcDbSymbolTable
 70
     1
  0
VPORT
  5
29
330
8
100
AcDbSymbolTableRecord
100
AcDbViewportTableRecord
  2
*ACTIVE
 70
     0
 10
0.0
 20
0.0
 11
1.0
 21
1.0
 12
10.42990654205607
 22
4.5
 13
0.0
 23
0.0
 14
0.5
 24
0.5
 15
0.5
 25
0.5
 16
0.0
 26
0.0
 36
1.0
 17
0.0
 27
0.0
 37
0.0
 40
9.0
 41
1.972972972850329
 42
50.0
 43
0.0
 44
0.0
 50
0.0
 51
0.0
 71
     0
 72
   100
 73
     1
 74
     3
 75
     0
 76
     0
 77
     0
 78
     0
  0
ENDTAB
  0
TABLE
  2
LTYPE
  5
5
330
0
100
AcDbSymbolTable
 70
    11
  0
LTYPE
  5
14
330
5
100
AcDbSymbolTableRecord
100
AcDbLinetypeTableRecord
  2
BYBLOCK
 70
     0
  3

 72
    65
 73
     0
 40
0.0
  0
LTYPE
  5
15
330
5
100
AcDbSymbolTableRecord
100
AcDbLinetypeTableRecord
  2
BYLAYER
 70
     0
  3

 72
    65
 73
     0
 40
0.0
  0
LTYPE
  5
16
330
5
100
AcDbSymbolTableRecord
100
AcDbLinetypeTableRecord
  2
CONTINUOUS
 70
     0
  3
Solid line
 72
    65
 73
     0
 40
0.0
  0
LTYPE
  5
93
330
5
100
AcDbSymbolTableRecord
100
AcDbLinetypeTableRecord
  2
STITCH_G
 70
     0
  3
Graphite's line style                   
 72
    65
 73
     2
 40
0.1449999958276749
 49
0.0724999979138374
 74
     0
 49
-0.0724999979138374
 74
     0
  0
LTYPE
  5
94
330
5
100
AcDbSymbolTableRecord
100
AcDbLinetypeTableRecord
  2
CUTTING_G
 70
     0
  3
Graphite's line style                   
 72
    65
 73
     6
 40
1.467499993741512
 49
1.0
 74
     0
 49
-0.0724999979138374
 74
     0
 49
0.125
 74
     0
 49
-0.0724999979138374
 74
     0
 49
0.125
 74
     0
 49
-0.0724999979138374
 74
     0
  0
LTYPE
  5
95
330
5
100
AcDbSymbolTableRecord
100
AcDbLinetypeTableRecord
  2
DIVIDE_G
 70
     0
  3
Graphite's line style                   
 72
    65
 73
     6
 40
0.7799999937415123
 49
0.5
 74
     0
 49
-0.0724999979138374
 74
     0
 49
0.03125
 74
     0
 49
-0.0724999979138374
 74
     0
 49
0.03125
 74
     0
 49
-0.0724999979138374
 74
     0
  0
LTYPE
  5
96
330
5
100
AcDbSymbolTableRecord
100
AcDbLinetypeTableRecord
  2
BORDER_G
 70
     0
  3
Graphite's line style                   
 72
    65
 73
     6
 40
1.248749993741512
 49
0.5
 74
     0
 49
-0.0724999979138374
 74
     0
 49
0.5
 74
     0
 49
-0.0724999979138374
 74
     0
 49
0.03125
 74
     0
 49
-0.0724999979138374
 74
     0
  0
LTYPE
  5
97
330
5
100
AcDbSymbolTableRecord
100
AcDbLinetypeTableRecord
  2
DASHDOT_G
 70
     0
  3
Graphite's line style                   
 72
    65
 73
     4
 40
0.6762499958276749
 49
0.5
 74
     0
 49
-0.0724999979138374
 74
     0
 49
0.03125
 74
     0
 49
-0.0724999979138374
 74
     0
  0
LTYPE
  5
98
330
5
100
AcDbSymbolTableRecord
100
AcDbLinetypeTableRecord
  2
PHANTOM_G
 70
     0
  3
Graphite's line style                   
 72
    65
 73
     6
 40
0.9674999937415123
 49
0.5
 74
     0
 49
-0.0724999979138374
 74
     0
 49
0.125
 74
     0
 49
-0.0724999979138374
 74
     0
 49
0.125
 74
     0
 49
-0.0724999979138374
 74
     0
  0
LTYPE
  5
99
330
5
100
AcDbSymbolTableRecord
100
AcDbLinetypeTableRecord
  2
HIDDEN_G
 70
     0
  3
Graphite's line style                   
 72
    65
 73
     2
 40
0.1974999979138374
 49
0.125
 74
     0
 49
-0.0724999979138374
 74
     0
  0
LTYPE
  5
9A
330
5
100
AcDbSymbolTableRecord
100
AcDbLinetypeTableRecord
  2
DASHED_G
 70
     0
  3
Graphite's line style                   
 72
    65
 73
     2
 40
0.375
 49
0.25
 74
     0
 49
-0.125
 74
     0
  0
LTYPE
  5
9B
330
5
100
AcDbSymbolTableRecord
100
AcDbLinetypeTableRecord
  2
CENTER_G
 70
     0
  3
Graphite's line style                   
 72
    65
 73
     4
 40
0.7699999958276749
 49
0.5
 74
     0
 49
-0.0724999979138374
 74
     0
 49
0.125
 74
     0
 49
-0.0724999979138374
 74
     0
  0
LTYPE
  5
9C
330
5
100
AcDbSymbolTableRecord
100
AcDbLinetypeTableRecord
  2
DOTTED_G
 70
     0
  3

 72
    65
 73
     2
 40
0.1001
 49
0.0001
 74
     0
 49
-0.1
 74
     2
 75
     0
340
0
 46
0.0
 50
0.0
 44
0.0
 45
0.0
  9
.
  0
ENDTAB
  0
TABLE
  2
LAYER
  5
2
330
0
100
AcDbSymbolTable
 70
     5
  0
LAYER
  5
10
330
2
100
AcDbSymbolTableRecord
100
AcDbLayerTableRecord
  2
0
 70
     0
 62
     7
  6
CONTINUOUS
  0
LAYER
  5
9D
330
2
100
AcDbSymbolTableRecord
100
AcDbLayerTableRecord
  2
LAYER1
 70
     0
 62
     7
  6
CONTINUOUS
  0
LAYER
  5
9E
330
2
100
AcDbSymbolTableRecord
100
AcDbLayerTableRecord
  2
CONSTRUCTION
 70
     0
 62
     7
  6
CONTINUOUS
  0
LAYER
  5
9F
330
2
100
AcDbSymbolTableRecord
100
AcDbLayerTableRecord
  2
DIMENSION
 70
     0
 62
     7
  6
CONTINUOUS
  0
LAYER
  5
A0
330
2
100
AcDbSymbolTableRecord
100
AcDbLayerTableRecord
  2
CONSTRAINTS
 70
     0
 62
     7
  6
CONTINUOUS
  0
ENDTAB
  0
TABLE
  2
STYLE
  5
3
330
0
100
AcDbSymbolTable
 70
     4
  0
STYLE
  5
11
330
3
100
AcDbSymbolTableRecord
100
AcDbTextStyleTableRecord
  2
STANDARD
 70
     0
 40
0.0
 41
1.0
 50
0.0
 71
     0
 42
0.2
  3
txt
  4

  0
STYLE
  5
6E
330
3
100
AcDbSymbolTableRecord
100
AcDbTextStyleTableRecord
  2
ODASHXSTYLE
 70
     0
 40
0.0
 41
1.0
 50
0.0
 71
     0
 42
0.2
  3
txt
  4

  0
STYLE
  5
6F
330
3
100
AcDbSymbolTableRecord
100
AcDbTextStyleTableRecord
  2
ODATTFSTYLE
 70
     0
 40
0.0
 41
1.0
 50
0.0
 71
     0
 42
0.2
  3
VERDANA.TTF
  4

1001
ACAD
1000
Verdana
1071
       34
  0
STYLE
  5
70
330
3
100
AcDbSymbolTableRecord
100
AcDbTextStyleTableRecord
  2

 70
     1
 40
0.0
 41
1.0
 50
0.0
 71
     0
 42
0.2
  3
ltypeshp.shx
  4

  0
ENDTAB
  0
TABLE
  2
VIEW
  5
6
330
0
100
AcDbSymbolTable
 70
     0
  0
ENDTAB
  0
TABLE
  2
UCS
  5
7
330
0
100
AcDbSymbolTable
 70
     0
  0
ENDTAB
  0
TABLE
  2
APPID
  5
9
330
0
100
AcDbSymbolTable
 70
     2
  0
APPID
  5
12
330
9
100
AcDbSymbolTableRecord
100
AcDbRegAppTableRecord
  2
ACAD
 70
     0
  0
APPID
  5
180
330
9
100
AcDbSymbolTableRecord
100
AcDbRegAppTableRecord
  2
ACAD_MLEADERVER
 70
     0
  0
ENDTAB
  0
TABLE
  2
DIMSTYLE
  5
A
330
0
100
AcDbSymbolTable
 70
     9
  0
DIMSTYLE
105
27
330
A
100
AcDbSymbolTableRecord
100
AcDbDimStyleTableRecord
  2
STANDARD
 70
     0
  3

  4

  5

  6

  7

 40
1.0
 41
0.18
 42
0.0625
 43
0.38
 44
0.18
 45
0.0
 46
0.0
 47
0.0
 48
0.0
140
0.18
141
0.09
142
0.0
143
25.4
144
1.0
145
0.0
146
1.0
147
0.09
 71
     0
 72
     0
 73
     1
 74
     1
 75
     0
 76
     0
 77
     0
 78
     0
170
     0
171
     2
172
     0
173
     0
174
     0
175
     0
176
     0
177
     0
178
     0
270
     2
271
     4
272
     4
273
     2
274
     2
340
11
275
     0
280
     0
281
     0
282
     0
283
     1
284
     0
285
     0
286
     0
287
     3
288
     0
  0
DIMSTYLE
105
71
330
A
100
AcDbSymbolTableRecord
100
AcDbDimStyleTableRecord
  2
ODADIMSTYLE0
 70
     0
  3

  4

  5

  6

  7

 40
1.0
 41
0.18
 42
0.0625
 43
0.38
 44
0.18
 45
0.0
 46
0.0
 47
0.0
 48
0.0
140
0.18
141
0.09
142
0.0
143
25.4
144
1.0
145
0.0
146
1.0
147
0.09
 71
     0
 72
     0
 73
     1
 74
     1
 75
     0
 76
     0
 77
     0
 78
     0
170
     0
171
     2
172
     0
173
     0
174
     0
175
     0
176
     0
177
     0
178
     0
270
     2
271
     4
272
     4
273
     2
274
     2
340
11
275
     0
280
     0
281
     0
282
     0
283
     1
284
     0
285
     0
286
     0
287
     3
288
     0
  0
DIMSTYLE
105
72
330
A
100
AcDbSymbolTableRecord
100
AcDbDimStyleTableRecord
  2
ODADIMSTYLE1
 70
     0
  3

  4

  5

  6

  7

 40
1.0
 41
0.18
 42
0.0625
 43
0.38
 44
0.18
 45
0.0
 46
0.0
 47
0.0
 48
0.0
140
0.18
141
0.09
142
0.0
143
25.4
144
1.0
145
0.0
146
1.0
147
0.09
 71
     0
 72
     0
 73
     1
 74
     1
 75
     0
 76
     0
 77
     0
 78
     0
170
     0
171
     2
172
     0
173
     0
174
     0
175
     0
176
     0
177
     0
178
     0
270
     2
271
     4
272
     4
273
     2
274
     2
340
11
275
     0
280
     0
281
     0
282
     0
283
     1
284
     0
285
     0
286
     0
287
     3
288
     0
  0
DIMSTYLE
105
73
330
A
100
AcDbSymbolTableRecord
100
AcDbDimStyleTableRecord
  2
ODADIMSTYLE2
 70
     0
  3

  4

  5
CLOSEDBLANK
  6

  7

 40
1.0
 41
0.18
 42
0.0625
 43
0.38
 44
0.18
 45
0.0
 46
0.0
 47
0.0
 48
0.0
140
0.18
141
0.09
142
0.0
143
25.4
144
1.0
145
0.0
146
1.0
147
0.09
 71
     0
 72
     0
 73
     1
 74
     1
 75
     0
 76
     0
 77
     0
 78
     0
170
     0
171
     2
172
     0
173
     0
174
     0
175
     0
176
     0
177
     0
178
     0
270
     2
271
     4
272
     4
273
     2
274
     2
340
11
275
     0
280
     0
281
     0
282
     0
283
     1
284
     0
285
     0
286
     0
287
     3
288
     0
  0
DIMSTYLE
105
7A
330
A
100
AcDbSymbolTableRecord
100
AcDbDimStyleTableRecord
  2
ODADIMSTYLE3
 70
     0
  3

  4

  5
NONE
  6

  7

 40
1.0
 41
0.18
 42
0.0625
 43
0.38
 44
0.18
 45
0.0
 46
0.0
 47
0.0
 48
0.0
140
0.18
141
0.09
142
0.0
143
25.4
144
1.0
145
0.0
146
1.0
147
0.09
 71
     0
 72
     0
 73
     1
 74
     1
 75
     0
 76
     0
 77
     0
 78
     0
170
     0
171
     2
172
     0
173
     0
174
     0
175
     0
176
     0
177
     0
178
     0
270
     2
271
     4
272
     4
273
     2
274
     2
340
11
275
     0
280
     0
281
     0
282
     0
283
     1
284
     0
285
     0
286
     0
287
     3
288
     0
  0
DIMSTYLE
105
7E
330
A
100
AcDbSymbolTableRecord
100
AcDbDimStyleTableRecord
  2
ODADIMSTYLE4
 70
     0
  3

  4

  5
OBLIQUE
  6

  7

 40
1.0
 41
0.18
 42
0.0625
 43
0.38
 44
0.18
 45
0.0
 46
0.0
 47
0.0
 48
0.0
140
0.18
141
0.09
142
0.0
143
25.4
144
1.0
145
0.0
146
1.0
147
0.09
 71
     0
 72
     0
 73
     1
 74
     1
 75
     0
 76
     0
 77
     0
 78
     0
170
     0
171
     2
172
     0
173
     0
174
     0
175
     0
176
     0
177
     0
178
     0
270
     2
271
     4
272
     4
273
     2
274
     2
340
11
275
     0
280
     0
281
     0
282
     0
283
     1
284
     0
285
     0
286
     0
287
     3
288
     0
  0
DIMSTYLE
105
83
330
A
100
AcDbSymbolTableRecord
100
AcDbDimStyleTableRecord
  2
ODADIMSTYLE5
 70
     0
  3

  4

  5

  6

  7

 40
1.0
 41
0.18
 42
0.0625
 43
0.38
 44
0.18
 45
0.0
 46
0.0
 47
0.0
 48
0.0
140
0.18
141
0.09
142
0.0
143
25.4
144
1.0
145
0.0
146
1.0
147
0.09
 71
     0
 72
     0
 73
     1
 74
     1
 75
     0
 76
     0
 77
     0
 78
     0
170
     0
171
     2
172
     0
173
     0
174
     0
175
     0
176
     0
177
     0
178
     0
270
     2
271
     4
272
     4
273
     2
274
     2
340
11
275
     0
280
     0
281
     0
282
     0
283
     1
284
     0
285
     0
286
     0
287
     3
288
     0
  0
DIMSTYLE
105
84
330
A
100
AcDbSymbolTableRecord
100
AcDbDimStyleTableRecord
  2
ODADIMSTYLE6
 70
     0
  3

  4

  5
DOT
  6

  7

 40
1.0
 41
0.18
 42
0.0625
 43
0.38
 44
0.18
 45
0.0
 46
0.0
 47
0.0
 48
0.0
140
0.18
141
0.09
142
0.0
143
25.4
144
1.0
145
0.0
146
1.0
147
0.09
 71
     0
 72
     0
 73
     1
 74
     1
 75
     0
 76
     0
 77
     0
 78
     0
170
     0
171
     2
172
     0
173
     0
174
     0
175
     0
176
     0
177
     0
178
     0
270
     2
271
     4
272
     4
273
     2
274
     2
340
11
275
     0
280
     0
281
     0
282
     0
283
     1
284
     0
285
     0
286
     0
287
     3
288
     0
  0
DIMSTYLE
105
8D
330
A
100
AcDbSymbolTableRecord
100
AcDbDimStyleTableRecord
  2
ODADIMSTYLE7
 70
     0
  3

  4

  5
DOTBLANK
  6

  7

 40
1.0
 41
0.18
 42
0.0625
 43
0.38
 44
0.18
 45
0.0
 46
0.0
 47
0.0
 48
0.0
140
0.18
141
0.09
142
0.0
143
25.4
144
1.0
145
0.0
146
1.0
147
0.09
 71
     0
 72
     0
 73
     1
 74
     1
 75
     0
 76
     0
 77
     0
 78
     0
170
     0
171
     2
172
     0
173
     0
174
     0
175
     0
176
     0
177
     0
178
     0
270
     2
271
     4
272
     4
273
     2
274
     2
340
11
275
     0
280
     0
281
     0
282
     0
283
     1
284
     0
285
     0
286
     0
287
     3
288
     0
  0
ENDTAB
  0
TABLE
  2
BLOCK_RECORD
  5
1
330
0
100
AcDbSymbolTable
 70
     6
  0
BLOCK_RECORD
  5
1F
330
1
100
AcDbSymbolTableRecord
100
AcDbBlockTableRecord
  2
*MODEL_SPACE
  0
BLOCK_RECORD
  5
1B
330
1
100
AcDbSymbolTableRecord
100
AcDbBlockTableRecord
  2
*PAPER_SPACE
  0
BLOCK_RECORD
  5
74
330
1
100
AcDbSymbolTableRecord
100
AcDbBlockTableRecord
  2
_CLOSEDBLANK
  0
BLOCK_RECORD
  5
7B
330
1
100
AcDbSymbolTableRecord
100
AcDbBlockTableRecord
  2
_NONE
  0
BLOCK_RECORD
  5
7F
330
1
100
AcDbSymbolTableRecord
100
AcDbBlockTableRecord
  2
_OBLIQUE
  0
BLOCK_RECORD
  5
85
330
1
100
AcDbSymbolTableRecord
100
AcDbBlockTableRecord
  2
_DOT
  0
BLOCK_RECORD
  5
8E
330
1
100
AcDbSymbolTableRecord
100
AcDbBlockTableRecord
  2
_DOTBLANK
  0
ENDTAB
  0
ENDSEC
  0
SECTION
  2
BLOCKS
  0
BLOCK
  5
20
330
1F
100
AcDbEntity
  8
0
100
AcDbBlockBegin
  2
*MODEL_SPACE
 70
     0
 10
0.0
 20
0.0
 30
0.0
  3
*MODEL_SPACE
  1

  0
ENDBLK
  5
21
330
1F
100
AcDbEntity
  8
0
100
AcDbBlockEnd
  0
BLOCK
  5
1C
330
1B
100
AcDbEntity
 67
     1
  8
0
100
AcDbBlockBegin
  2
*PAPER_SPACE
 70
     0
 10
0.0
 20
0.0
 30
0.0
  3
*PAPER_SPACE
  1

  0
ENDBLK
  5
1D
330
1B
100
AcDbEntity
 67
     1
  8
0
100
AcDbBlockEnd
  0
BLOCK
  5
75
330
74
100
AcDbEntity
  8
0
100
AcDbBlockBegin
  2
_CLOSEDBLANK
 70
     0
 10
0.0
 20
0.0
 30
0.0
  3
_CLOSEDBLANK
  1

  0
LINE
  5
77
330
74
100
AcDbEntity
  8
0
  6
BYBLOCK
 62
     0
100
AcDbLine
 10
-1.0
 20
0.166667
 30
0.0
 11
0.0
 21
0.0
 31
0.0
  0
LINE
  5
78
330
74
100
AcDbEntity
  8
0
  6
BYBLOCK
 62
     0
100
AcDbLine
 10
0.0
 20
0.0
 30
0.0
 11
-1.0
 21
-0.166667
 31
0.0
  0
LINE
  5
79
330
74
100
AcDbEntity
  8
0
  6
BYBLOCK
 62
     0
100
AcDbLine
 10
-1.0
 20
0.166667
 30
0.0
 11
-1.0
 21
-0.166667
 31
0.0
  0
ENDBLK
  5
76
330
74
100
AcDbEntity
  8
0
100
AcDbBlockEnd
  0
BLOCK
  5
7C
330
7B
100
AcDbEntity
  8
0
100
AcDbBlockBegin
  2
_NONE
 70
     0
 10
0.0
 20
0.0
 30
0.0
  3
_NONE
  1

  0
ENDBLK
  5
7D
330
7B
100
AcDbEntity
  8
0
100
AcDbBlockEnd
  0
BLOCK
  5
80
330
7F
100
AcDbEntity
  8
0
100
AcDbBlockBegin
  2
_OBLIQUE
 70
     0
 10
0.0
 20
0.0
 30
0.0
  3
_OBLIQUE
  1

  0
LINE
  5
82
330
7F
100
AcDbEntity
  8
0
  6
BYBLOCK
 62
     0
100
AcDbLine
 10
-0.5
 20
-0.5
 30
0.0
 11
0.5
 21
0.5
 31
0.0
  0
ENDBLK
  5
81
330
7F
100
AcDbEntity
  8
0
100
AcDbBlockEnd
  0
BLOCK
  5
86
330
85
100
AcDbEntity
  8
0
100
AcDbBlockBegin
  2
_DOT
 70
     0
 10
0.0
 20
0.0
 30
0.0
  3
_DOT
  1

  0
POLYLINE
  5
88
330
85
100
AcDbEntity
  8
0
  6
BYBLOCK
 62
     0
100
AcDb2dPolyline
 66
     1
 10
0.0
 20
0.0
 30
0.0
 70
     1
 40
0.5
 41
0.5
  0
VERTEX
  5
8A
330
88
100
AcDbEntity
  8
0
  6
BYBLOCK
 62
     0
100
AcDbVertex
100
AcDb2dVertex
 10
-0.25
 20
0.0
 30
0.0
 42
1.0
  0
VERTEX
  5
8B
330
88
100
AcDbEntity
  8
0
  6
BYBLOCK
 62
     0
100
AcDbVertex
100
AcDb2dVertex
 10
0.25
 20
0.0
 30
0.0
 42
1.0
  0
SEQEND
  5
8C
330
88
100
AcDbEntity
  8
0
  6
BYBLOCK
 62
     0
  0
LINE
  5
89
330
85
100
AcDbEntity
  8
0
  6
BYBLOCK
 62
     0
100
AcDbLine
 10
-0.5
 20
0.0
 30
0.0
 11
-1.0
 21
0.0
 31
0.0
  0
ENDBLK
  5
87
330
85
100
AcDbEntity
  8
0
100
AcDbBlockEnd
  0
BLOCK
  5
8F
330
8E
100
AcDbEntity
  8
0
100
AcDbBlockBegin
  2
_DOTBLANK
 70
     0
 10
0.0
 20
0.0
 30
0.0
  3
_DOTBLANK
  1

  0
CIRCLE
  5
91
330
8E
100
AcDbEntity
  8
0
  6
BYBLOCK
 62
     0
100
AcDbCircle
 10
0.0
 20
0.0
 30
0.0
 40
0.5
  0
LINE
  5
92
330
8E
100
AcDbEntity
  8
0
  6
BYBLOCK
 62
     0
100
AcDbLine
 10
-0.5
 20
0.0
 30
0.0
 11
-1.0
 21
0.0
 31
0.0
  0
ENDBLK
  5
90
330
8E
100
AcDbEntity
  8
0
100
AcDbBlockEnd
  0
ENDSEC
  0
SECTION
  2
ENTITIES
  0
LINE
  5
A1
330
1F
100
AcDbEntity
  8
LAYER1
 62
     7
100
AcDbLine
 10
-2.64125153
 20
13.57083334333332
 30
0.0
 11
-3.101250609999999
 21
13.57083334333332
 31
0.0
  0
LINE
  5
A2
330
1F
100
AcDbEntity
  8
LAYER1
 62
     7
100
AcDbLine
 10
-2.64125153
 20
13.64483319533332
 30
0.0
 11
-3.101250609999999
 21
13.64483319533332
 31
0.0
  0
LINE
  5
A3
330
1F
100
AcDbEntity
  8
LAYER1
 62
     7
100
AcDbLine
 10
-2.649251513999999
 20
13.65283317933332
 30
0.0
 11
-3.101250609999999
 21
13.65283317933332
 31
0.0
  0
LINE
  5
A4
330
1F
100
AcDbEntity
  8
LAYER1
 62
     7
100
AcDbLine
 10
-2.639763398157372
 20
13.00006048080259
 30
0.0
 11
-3.101250609999999
 21
13.00006048080259
 31
0.0
  0
LINE
  5
A5
330
1F
100
AcDbEntity
  8
LAYER1
 62
     7
100
AcDbLine
 10
-2.649251513999999
 20
13.21483405533332
 30
0.0
 11
-3.101250609999999
 21
13.21483405533332
 31
0.0
  0
LINE
  5
A6
330
1F
100
AcDbEntity
  8
LAYER1
 62
     7
100
AcDbLine
 10
-2.64125153
 20
13.22283403933332
 30
0.0
 11
-3.101250609999999
 21
13.22283403933332
 31
0.0
  0
LINE
  5
A7
330
1F
100
AcDbEntity
  8
LAYER1
 62
     7
100
AcDbLine
 10
-2.64125153
 20
13.29683389133332
 30
0.0
 11
-3.101250609999999
 21
13.29683389133332
 31
0.0
  0
LINE
  5
A8
330
1F
100
AcDbEntity
  8
LAYER1
 62
     7
100
AcDbLine
 10
-2.649251513999999
 20
13.30483387533332
 30
0.0
 11
-3.093250626
 21
13.30483387533332
 31
0.0
  0
LINE
  5
A9
330
1F
100
AcDbEntity
  8
LAYER1
 62
     7
100
AcDbLine
 10
-3.2062504
 20
12.79633489233332
 30
0.0
 11
-2.746251319999999
 21
12.79633489233332
 31
0.0
  0
LINE
  5
AA
330
1F
100
AcDbEntity
  8
LAYER1
 62
     7
100
AcDbLine
 10
-3.136250539999999
 20
12.84833478833332
 30
0.0
 11
-3.067250677999999
 21
12.84833478833332
 31
0.0
  0
LINE
  5
AB
330
1F
100
AcDbEntity
  8
LAYER1
 62
     7
100
AcDbLine
 10
-3.151250509999999
 20
12.9630847668211
 30
0.0
 11
-3.067250677999999
 21
12.9630847668211
 31
0.0
  0
LINE
  5
AC
330
1F
100
AcDbEntity
  8
LAYER1
 62
     7
100
AcDbLine
 10
-3.76124929
 20
13.80133288233332
 30
0.0
 11
-3.76124929
 21
12.95033458433332
 31
0.0
  0
LINE
  5
AD
330
1F
100
AcDbEntity
  8
LAYER1
 62
     7
100
AcDbLine
 10
-3.774249264
 20
13.78133292233332
 30
0.0
 11
-3.774249264
 21
12.97033454433332
 31
0.0
  0
LINE
  5
AE
330
1F
100
AcDbEntity
  8
LAYER1
 62
     7
100
AcDbLine
 10
-3.828249156
 20
13.78133292233332
 30
0.0
 11
-3.828249156
 21
12.97033454433332
 31
0.0
  0
LINE
  5
AF
330
1F
100
AcDbEntity
  8
LAYER1
 62
     7
100
AcDbLine
 10
-3.84124913
 20
13.80133288233332
 30
0.0
 11
-3.84124913
 21
12.95033458433332
 31
0.0
  0
LINE
  5
B0
330
1F
100
AcDbEntity
  8
LAYER1
 62
     7
100
AcDbLine
 10
-3.916248980000001
 20
13.80133288233332
 30
0.0
 11
-3.916248980000001
 21
12.95033458433332
 31
0.0
  0
LINE
  5
B1
330
1F
100
AcDbEntity
  8
LAYER1
 62
     7
100
AcDbLine
 10
-3.94124893
 20
13.77633293233332
 30
0.0
 11
-3.94124893
 21
12.97533453433332
 31
0.0
  0
LINE
  5
B2
330
1F
100
AcDbEntity
  8
LAYER1
 62
     7
100
AcDbLine
 10
-3.58124965
 20
12.90633467233332
 30
0.0
 11
-3.58124965
 21
13.84533279433332
 31
0.0
  0
LINE
  5
B3
330
1F
100
AcDbEntity
  8
LAYER1
 62
     7
100
AcDbLine
 10
-3.6062496
 20
12.93133462233332
 30
0.0
 11
-3.6062496
 21
13.82033284433332
 31
0.0
  0
LINE
  5
B4
330
1F
100
AcDbEntity
  8
LAYER1
 62
     7
100
AcDbLine
 10
-3.40625
 20
13.80332984800868
 30
0.0
 11
-3.40625
 21
12.94833761865797
 31
0.0
  0
LINE
  5
B5
330
1F
100
AcDbEntity
  8
LAYER1
 62
     7
100
AcDbLine
 10
-3.081250649999999
 20
13.56283335933332
 30
0.0
 11
-3.081250649999999
 21
13.30483387533332
 31
0.0
  0
LINE
  5
B6
330
1F
100
AcDbEntity
  8
LAYER1
 62
     7
100
AcDbLine
 10
-2.371252069999999
 20
13.75689921447249
 30
0.0
 11
-2.371252069999999
 21
12.99476825219416
 31
0.0
  0
MTEXT
  5
B7
330
1F
100
AcDbEntity
  8
LAYER1
 62
     7
100
AcDbMText
 10
-3.015103432203426
 20
13.45588513295124
 30
0.0
 40
0.0399999991059303
 41
0.9117478265000013
 71
     1
 72
     1
  1
{\C7;\l\FPlotter|b0|i0|c00|p34;DTM06-08S-E007\P}
  0
LINE
  5
B8
330
1F
100
AcDbEntity
  8
LAYER1
 62
     7
100
AcDbLine
 10
-3.774249264
 20
12.97033454433332
 30
0.0
 11
-3.828249156
 21
12.97033454433332
 31
0.0
  0
ARC
  5
B9
330
1F
100
AcDbEntity
  8
LAYER1
 62
     7
100
AcDbCircle
 10
-2.649251513999999
 20
13.22283403933332
 30
0.0
 40
0.0079999839999996
100
AcDbArc
 50
270.0
 51
0.0
  0
ARC
  5
BA
330
1F
100
AcDbEntity
  8
LAYER1
 62
     7
100
AcDbCircle
 10
-2.649251513999999
 20
13.29683389133332
 30
0.0
 40
0.0079999839999996
100
AcDbArc
 50
0.0
 51
90.0
  0
ARC
  5
BB
330
1F
100
AcDbEntity
  8
LAYER1
 62
     7
100
AcDbCircle
 10
-2.746251319999999
 20
12.90133468233332
 30
0.0
 40
0.104999789999999
100
AcDbArc
 50
270.0
 51
0.0
  0
ARC
  5
BC
330
1F
100
AcDbEntity
  8
LAYER1
 62
     7
100
AcDbCircle
 10
-2.596251619999999
 20
12.93533461433332
 30
0.0
 40
0.0449999099999996
100
AcDbArc
 50
90.0
 51
180.0
  0
ARC
  5
BD
330
1F
100
AcDbEntity
  8
LAYER1
 62
     7
100
AcDbCircle
 10
-2.941034394999999
 20
12.84033480433332
 30
0.0
 40
0.0079999840000001
100
AcDbArc
 50
299.9999999999907
 51
90.0
  0
LINE
  5
BE
330
1F
100
AcDbEntity
  8
LAYER1
 62
     7
100
AcDbLine
 10
-2.39625202
 20
12.98033452433332
 30
0.0
 11
-2.596251619999999
 21
12.98033452433332
 31
0.0
  0
LINE
  5
BF
330
1F
100
AcDbEntity
  8
LAYER1
 62
     7
100
AcDbLine
 10
-2.371252069999999
 20
13.09333429833332
 30
0.0
 11
-2.596251619999999
 21
13.09333429833332
 31
0.0
  0
LINE
  5
C0
330
1F
100
AcDbEntity
  8
LAYER1
 62
     7
100
AcDbLine
 10
-3.05125071
 20
12.84833478833332
 30
0.0
 11
-3.05125071
 21
12.79633489233332
 31
0.0
  0
LINE
  5
C1
330
1F
100
AcDbEntity
  8
LAYER1
 62
     7
100
AcDbLine
 10
-3.067250677999999
 20
12.84833478833332
 30
0.0
 11
-3.067250677999999
 21
12.9630847668211
 31
0.0
  0
LINE
  5
C2
330
1F
100
AcDbEntity
  8
LAYER1
 62
     7
100
AcDbLine
 10
-2.371252069999999
 20
12.99476825219416
 30
0.0
 11
-2.39625202
 21
12.98033452433332
 31
0.0
  0
LINE
  5
C3
330
1F
100
AcDbEntity
  8
LAYER1
 62
     7
100
AcDbLine
 10
-2.941034394999999
 20
12.84833478833332
 30
0.0
 11
-3.05125071
 21
12.84833478833332
 31
0.0
  0
LINE
  5
C4
330
1F
100
AcDbEntity
  8
LAYER1
 62
     7
100
AcDbLine
 10
-2.596251619999999
 20
13.09333429833332
 30
0.0
 11
-2.596251619999999
 21
12.98033452433332
 31
0.0
  0
LINE
  5
C5
330
1F
100
AcDbEntity
  8
LAYER1
 62
     7
100
AcDbLine
 10
-3.001244510111023
 20
12.79633489233332
 30
0.0
 11
-2.937034403
 21
12.83340661496138
 31
0.0
  0
LINE
  5
C6
330
1F
100
AcDbEntity
  8
LAYER1
 62
     7
100
AcDbLine
 10
-2.64125153
 20
13.29683389133332
 30
0.0
 11
-2.64125153
 21
13.22283403933332
 31
0.0
  0
LINE
  5
C7
330
1F
100
AcDbEntity
  8
LAYER1
 62
     7
100
AcDbLine
 10
-2.64125153
 20
12.90133468233332
 30
0.0
 11
-2.64125153
 21
12.93533461433332
 31
0.0
  0
LINE
  5
C8
330
1F
100
AcDbEntity
  8
LAYER1
 62
     7
100
AcDbLine
 10
-2.649251513999999
 20
13.30483387533332
 30
0.0
 11
-2.649251513999999
 21
13.21483405533332
 31
0.0
  0
LINE
  5
C9
330
1F
100
AcDbEntity
  8
LAYER1
 62
     7
100
AcDbLine
 10
-3.067250677999999
 20
12.95333457833332
 30
0.0
 11
-2.637494718769542
 21
12.95333457833332
 31
0.0
  0
LINE
  5
CA
330
1F
100
AcDbEntity
  8
LAYER1
 62
     7
100
AcDbLine
 10
-3.101250609999999
 20
13.75160698586406
 30
0.0
 11
-2.639763398157372
 21
13.75160698586406
 31
0.0
  0
LINE
  5
CB
330
1F
100
AcDbEntity
  8
LAYER1
 62
     7
100
AcDbLine
 10
-3.067250677999999
 20
13.79762821296315
 30
0.0
 11
-3.151250509999999
 21
13.79762821296315
 31
0.0
  0
LINE
  5
CC
330
1F
100
AcDbEntity
  8
LAYER1
 62
     7
100
AcDbLine
 10
-3.136250539999999
 20
13.90333267833332
 30
0.0
 11
-3.067250677999999
 21
13.90333267833332
 31
0.0
  0
LINE
  5
CD
330
1F
100
AcDbEntity
  8
LAYER1
 62
     7
100
AcDbLine
 10
-3.18125045
 20
12.77833492833332
 30
0.0
 11
-3.18125045
 21
12.79633489233332
 31
0.0
  0
LINE
  5
CE
330
1F
100
AcDbEntity
  8
LAYER1
 62
     7
100
AcDbLine
 10
-3.2062504
 20
12.75333497833332
 30
0.0
 11
-3.2062504
 21
12.79633489233332
 31
0.0
  0
LINE
  5
CF
330
1F
100
AcDbEntity
  8
LAYER1
 62
     7
100
AcDbLine
 10
-2.746251319999999
 20
13.95533257433332
 30
0.0
 11
-3.2062504
 21
13.95533257433332
 31
0.0
  0
LINE
  5
D0
330
1F
100
AcDbEntity
  8
LAYER1
 62
     7
100
AcDbLine
 10
-2.649251513999999
 20
13.56283335933332
 30
0.0
 11
-3.093250626
 21
13.56283335933332
 31
0.0
  0
LINE
  5
D1
330
1F
100
AcDbEntity
  8
LAYER1
 62
     7
100
AcDbLine
 10
-3.381250049999998
 20
12.79637939827581
 30
0.0
 11
-3.381250049999998
 21
12.77833492833332
 31
0.0
  0
LINE
  5
D2
330
1F
100
AcDbEntity
  8
LAYER1
 62
     7
100
AcDbLine
 10
-3.388217696367828
 20
12.82133484233332
 30
0.0
 11
-3.388217696367828
 21
12.79633489233332
 31
0.0
  0
LINE
  5
D3
330
1F
100
AcDbEntity
  8
LAYER1
 62
     7
100
AcDbLine
 10
-3.41624998
 20
12.82133484233332
 30
0.0
 11
-3.41624998
 21
12.79633489233332
 31
0.0
  0
LINE
  5
D4
330
1F
100
AcDbEntity
  8
LAYER1
 62
     7
100
AcDbLine
 10
-3.6062496
 20
12.95033458433332
 30
0.0
 11
-3.76124929
 21
12.95033458433332
 31
0.0
  0
LINE
  5
D5
330
1F
100
AcDbEntity
  8
LAYER1
 62
     7
100
AcDbLine
 10
-3.84124913
 20
12.95033458433332
 30
0.0
 11
-3.916248980000001
 21
12.95033458433332
 31
0.0
  0
LINE
  5
D6
330
1F
100
AcDbEntity
  8
LAYER1
 62
     7
100
AcDbLine
 10
-3.271555966762621
 20
12.95333457833332
 30
0.0
 11
-3.151250509999999
 21
12.95333457833332
 31
0.0
  0
LINE
  5
D7
330
1F
100
AcDbEntity
  8
LAYER1
 62
     7
100
AcDbLine
 10
-3.40625
 20
13.00209150351219
 30
0.0
 11
-3.285355270388367
 21
13.00209150351219
 31
0.0
  0
LINE
  5
D8
330
1F
100
AcDbEntity
  8
LAYER1
 62
     7
100
AcDbLine
 10
-3.6062496
 20
13.11333425833332
 30
0.0
 11
-3.081250649999999
 21
13.11333425833332
 31
0.0
  0
LINE
  5
D9
330
1F
100
AcDbEntity
  8
LAYER1
 62
     7
100
AcDbLine
 10
-3.6062496
 20
13.12833422833332
 30
0.0
 11
-3.94124893
 21
13.12833422833332
 31
0.0
  0
LINE
  5
DA
330
1F
100
AcDbEntity
  8
LAYER1
 62
     7
100
AcDbLine
 10
-3.081250649999999
 20
13.03068455975116
 30
0.0
 11
-3.081250649999999
 21
13.21483405533332
 31
0.0
  0
LINE
  5
DB
330
1F
100
AcDbEntity
  8
LAYER1
 62
     7
100
AcDbLine
 10
-3.093250626
 20
13.21483405533332
 30
0.0
 11
-3.093250626
 21
13.30483387533332
 31
0.0
  0
LINE
  5
DC
330
1F
100
AcDbEntity
  8
LAYER1
 62
     7
100
AcDbLine
 10
-3.151250509999999
 20
12.9630847668211
 30
0.0
 11
-3.151250509999999
 21
12.86333475833332
 31
0.0
  0
LINE
  5
DD
330
1F
100
AcDbEntity
  8
LAYER1
 62
     7
100
AcDbLine
 10
-3.356250099999999
 20
12.75333497833332
 30
0.0
 11
-3.2062504
 21
12.75333497833332
 31
0.0
  0
LINE
  5
DE
330
1F
100
AcDbEntity
  8
LAYER1
 62
     7
100
AcDbLine
 10
-3.18125045
 20
12.77833492833332
 30
0.0
 11
-3.381250049999998
 21
12.77833492833332
 31
0.0
  0
LINE
  5
DF
330
1F
100
AcDbEntity
  8
LAYER1
 62
     7
100
AcDbLine
 10
-3.383110074921674
 20
12.79633489233332
 30
0.0
 11
-3.41624998
 21
12.79633489233332
 31
0.0
  0
LINE
  5
E0
330
1F
100
AcDbEntity
  8
LAYER1
 62
     7
100
AcDbLine
 10
-3.41624998
 20
12.82133484233332
 30
0.0
 11
-3.388217696367828
 21
12.82133484233332
 31
0.0
  0
LINE
  5
E1
330
1F
100
AcDbEntity
  8
LAYER1
 62
     7
100
AcDbLine
 10
-3.43124995
 20
12.83633481233332
 30
0.0
 11
-3.4562499
 21
12.83633481233332
 31
0.0
  0
LINE
  5
E2
330
1F
100
AcDbEntity
  8
LAYER1
 62
     7
100
AcDbLine
 10
-3.374827927643484
 20
12.82918489892845
 30
0.0
 11
-3.353177335862075
 21
12.81726837658438
 31
0.0
  0
LINE
  5
E3
330
1F
100
AcDbEntity
  8
LAYER1
 62
     7
100
AcDbLine
 10
-3.58124965
 20
12.90633467233332
 30
0.0
 11
-3.521249769999999
 21
12.90633467233332
 31
0.0
  0
LINE
  5
E4
330
1F
100
AcDbEntity
  8
LAYER1
 62
     7
100
AcDbLine
 10
-3.511249790000001
 20
12.91833464833332
 30
0.0
 11
-3.4562499
 21
12.91833464833332
 31
0.0
  0
LINE
  5
E5
330
1F
100
AcDbEntity
  8
LAYER1
 62
     7
100
AcDbLine
 10
-3.486249839999999
 20
12.94333459833332
 30
0.0
 11
-3.43124995
 21
12.94333459833332
 31
0.0
  0
LINE
  5
E6
330
1F
100
AcDbEntity
  8
LAYER1
 62
     7
100
AcDbLine
 10
-3.511249790000001
 20
12.91833464833332
 30
0.0
 11
-3.486249839999999
 21
12.94333459833332
 31
0.0
  0
ARC
  5
E7
330
1F
100
AcDbEntity
  8
LAYER1
 62
     7
100
AcDbCircle
 10
-3.356250099999999
 20
12.77833492833332
 30
0.0
 40
0.0249999499999998
100
AcDbArc
 50
180.0
 51
270.0
  0
LINE
  5
E8
330
1F
100
AcDbEntity
  8
LAYER1
 62
     7
100
AcDbLine
 10
-2.39625202
 20
13.77133294233332
 30
0.0
 11
-2.39625202
 21
12.98033452433332
 31
0.0
  0
LINE
  5
E9
330
1F
100
AcDbEntity
  8
LAYER1
 62
     7
100
AcDbLine
 10
-3.521249769999999
 20
12.94833761865797
 30
0.0
 11
-3.40625
 21
12.94833761865797
 31
0.0
  0
ARC
  5
EA
330
1F
100
AcDbEntity
  8
LAYER1
 62
     7
100
AcDbCircle
 10
-3.093250626
 20
13.22283403933332
 30
0.0
 40
0.0079999840000013
100
AcDbArc
 50
180.0
 51
270.0
  0
ARC
  5
EB
330
1F
100
AcDbEntity
  8
LAYER1
 62
     7
100
AcDbCircle
 10
-3.093250626
 20
13.29683389133332
 30
0.0
 40
0.0079999839999996
100
AcDbArc
 50
90.0
 51
180.0
  0
ARC
  5
EC
330
1F
100
AcDbEntity
  8
LAYER1
 62
     7
100
AcDbCircle
 10
-3.2062504
 20
12.77833492833332
 30
0.0
 40
0.0249999499999998
100
AcDbArc
 50
270.0
 51
0.0
  0
ARC
  5
ED
330
1F
100
AcDbEntity
  8
LAYER1
 62
     7
100
AcDbCircle
 10
-3.136250539999999
 20
12.86333475833332
 30
0.0
 40
0.0149999699999999
100
AcDbArc
 50
180.0
 51
270.0
  0
ARC
  5
EE
330
1F
100
AcDbEntity
  8
LAYER1
 62
     7
100
AcDbCircle
 10
-3.43361742337528
 20
12.10898072504047
 30
0.0
 40
0.7128407994454696
100
AcDbArc
 50
83.10755502209992
 51
83.52069147520007
  0
ARC
  5
EF
330
1F
100
AcDbEntity
  8
LAYER1
 62
     7
100
AcDbCircle
 10
-3.41624998
 20
12.83633481233332
 30
0.0
 40
0.0399999199999996
100
AcDbArc
 50
180.0
 51
270.0
  0
ARC
  5
F0
330
1F
100
AcDbEntity
  8
LAYER1
 62
     7
100
AcDbCircle
 10
-3.58124965
 20
12.93133462233332
 30
0.0
 40
0.0249999499999998
100
AcDbArc
 50
180.0
 51
270.0
  0
ARC
  5
F1
330
1F
100
AcDbEntity
  8
LAYER1
 62
     7
100
AcDbCircle
 10
-3.916248980000001
 20
12.97533453433332
 30
0.0
 40
0.0249999499999998
100
AcDbArc
 50
180.0
 51
270.0
  0
LINE
  5
F2
330
1F
100
AcDbEntity
  8
LAYER1
 62
     7
100
AcDbLine
 10
-3.43124995
 20
12.94333459833332
 30
0.0
 11
-3.43124995
 21
12.83633481233332
 31
0.0
  0
ARC
  5
F3
330
1F
100
AcDbEntity
  8
LAYER1
 62
     7
100
AcDbCircle
 10
-3.828249156
 20
12.95733457033332
 30
0.0
 40
0.0129999739999995
100
AcDbArc
 50
90.0
 51
180.0
  0
LINE
  5
F4
330
1F
100
AcDbEntity
  8
LAYER1
 62
     7
100
AcDbLine
 10
-3.4562499
 20
12.91833464833332
 30
0.0
 11
-3.4562499
 21
12.83633481233332
 31
0.0
  0
LINE
  5
F5
330
1F
100
AcDbEntity
  8
LAYER1
 62
     7
100
AcDbLine
 10
-3.486249839999999
 20
12.94333459833332
 30
0.0
 11
-3.486249839999999
 21
12.94833761865797
 31
0.0
  0
LINE
  5
F6
330
1F
100
AcDbEntity
  8
LAYER1
 62
     7
100
AcDbLine
 10
-3.511249790000001
 20
12.91833464833332
 30
0.0
 11
-3.511249790000001
 21
12.94833761865797
 31
0.0
  0
LINE
  5
F7
330
1F
100
AcDbEntity
  8
LAYER1
 62
     7
100
AcDbLine
 10
-3.521249769999999
 20
12.94833761865797
 30
0.0
 11
-3.521249769999999
 21
12.90633467233332
 31
0.0
  0
LINE
  5
F8
330
1F
100
AcDbEntity
  8
LAYER1
 62
     7
100
AcDbLine
 10
-3.101250609999999
 20
13.00006048080259
 30
0.0
 11
-3.101250609999999
 21
13.21483405533332
 31
0.0
  0
LINE
  5
F9
330
1F
100
AcDbEntity
  8
LAYER1
 62
     7
100
AcDbLine
 10
-3.101250609999999
 20
13.22283403933332
 30
0.0
 11
-3.101250609999999
 21
13.29683389133332
 31
0.0
  0
LINE
  5
FA
330
1F
100
AcDbEntity
  8
LAYER1
 62
     7
100
AcDbLine
 10
-3.101250609999999
 20
13.65283317933332
 30
0.0
 11
-3.101250609999999
 21
13.75160698586406
 31
0.0
  0
LINE
  5
FB
330
1F
100
AcDbEntity
  8
LAYER1
 62
     7
100
AcDbLine
 10
-3.151250509999999
 20
13.79762821296315
 30
0.0
 11
-3.151250509999999
 21
13.88833270833332
 31
0.0
  0
ARC
  5
FC
330
1F
100
AcDbEntity
  8
LAYER1
 62
     7
100
AcDbCircle
 10
-2.941040694888974
 20
13.91133266233332
 30
0.0
 40
0.0079999839999996
100
AcDbArc
 50
270.0
 51
60.00000000000932
  0
ARC
  5
FD
330
1F
100
AcDbEntity
  8
LAYER1
 62
     7
100
AcDbCircle
 10
-2.649251513999999
 20
13.64483319533332
 30
0.0
 40
0.0079999839999996
100
AcDbArc
 50
0.0
 51
90.0
  0
ARC
  5
FE
330
1F
100
AcDbEntity
  8
LAYER1
 62
     7
100
AcDbCircle
 10
-2.649251513999999
 20
13.57083334333332
 30
0.0
 40
0.0079999839999996
100
AcDbArc
 50
270.0
 51
0.0
  0
LINE
  5
FF
330
1F
100
AcDbEntity
  8
LAYER1
 62
     7
100
AcDbLine
 10
-3.05125071
 20
13.90333267833332
 30
0.0
 11
-2.941040694888974
 21
13.90333267833332
 31
0.0
  0
LINE
  5
100
330
1F
100
AcDbEntity
  8
LAYER1
 62
     7
100
AcDbLine
 10
-2.937040702888975
 20
13.91826085170526
 30
0.0
 11
-3.00125081
 21
13.95533257433332
 31
0.0
  0
LINE
  5
101
330
1F
100
AcDbEntity
  8
LAYER1
 62
     7
100
AcDbLine
 10
-3.266250279992125
 20
12.9865711661238
 30
0.0
 11
-3.26625028
 21
12.9630847668211
 31
0.0
  0
LINE
  5
102
330
1F
100
AcDbEntity
  8
LAYER1
 62
     7
100
AcDbLine
 10
-3.356250099999999
 20
12.75333497833332
 30
0.0
 11
-3.356250099999999
 21
12.80655084948404
 31
0.0
  0
ARC
  5
103
330
1F
100
AcDbEntity
  8
LAYER1
 62
     7
100
AcDbCircle
 10
-2.596251619999999
 20
13.81633285233332
 30
0.0
 40
0.0449999100000014
100
AcDbArc
 50
180.0
 51
270.0
  0
LINE
  5
104
330
1F
100
AcDbEntity
  8
LAYER1
 62
     7
100
AcDbLine
 10
-2.596251619999999
 20
13.77133294233332
 30
0.0
 11
-2.39625202
 21
13.77133294233332
 31
0.0
  0
LINE
  5
105
330
1F
100
AcDbEntity
  8
LAYER1
 62
     7
100
AcDbLine
 10
-3.067250677999999
 20
13.79833288833332
 30
0.0
 11
-2.637494718769542
 21
13.79833288833332
 31
0.0
  0
LINE
  5
106
330
1F
100
AcDbEntity
  8
LAYER1
 62
     7
100
AcDbLine
 10
-2.371252069999999
 20
13.65833316833332
 30
0.0
 11
-2.596251619999999
 21
13.65833316833332
 31
0.0
  0
LINE
  5
107
330
1F
100
AcDbEntity
  8
LAYER1
 62
     7
100
AcDbLine
 10
-3.05125071
 20
13.95533257433332
 30
0.0
 11
-3.05125071
 21
13.90333267833332
 31
0.0
  0
LINE
  5
108
330
1F
100
AcDbEntity
  8
LAYER1
 62
     7
100
AcDbLine
 10
-3.067250677999999
 20
13.90333267833332
 30
0.0
 11
-3.067250677999999
 21
13.79762821296315
 31
0.0
  0
LINE
  5
109
330
1F
100
AcDbEntity
  8
LAYER1
 62
     7
100
AcDbLine
 10
-2.596251619999999
 20
13.77133294233332
 30
0.0
 11
-2.596251619999999
 21
13.65833316833332
 31
0.0
  0
LINE
  5
10A
330
1F
100
AcDbEntity
  8
LAYER1
 62
     7
100
AcDbLine
 10
-2.64125153
 20
13.64483319533332
 30
0.0
 11
-2.64125153
 21
13.57083334333332
 31
0.0
  0
LINE
  5
10B
330
1F
100
AcDbEntity
  8
LAYER1
 62
     7
100
AcDbLine
 10
-2.64125153
 20
13.81633285233332
 30
0.0
 11
-2.64125153
 21
13.85033278433332
 31
0.0
  0
LINE
  5
10C
330
1F
100
AcDbEntity
  8
LAYER1
 62
     7
100
AcDbLine
 10
-2.649251513999999
 20
13.65283317933332
 30
0.0
 11
-2.649251513999999
 21
13.56283335933332
 31
0.0
  0
LINE
  5
10D
330
1F
100
AcDbEntity
  8
LAYER1
 62
     7
100
AcDbLine
 10
-3.4562499
 20
12.91833464833332
 30
0.0
 11
-3.43124995
 21
12.94333459833332
 31
0.0
  0
LINE
  5
10E
330
1F
100
AcDbEntity
  8
LAYER1
 62
     7
100
AcDbLine
 10
-3.2062504
 20
13.99833248833332
 30
0.0
 11
-3.356250099999999
 21
13.99833248833332
 31
0.0
  0
LINE
  5
10F
330
1F
100
AcDbEntity
  8
LAYER1
 62
     7
100
AcDbLine
 10
-3.41624998
 20
13.93033262433332
 30
0.0
 11
-3.41624998
 21
13.95533257433332
 31
0.0
  0
LINE
  5
110
330
1F
100
AcDbEntity
  8
LAYER1
 62
     7
100
AcDbLine
 10
-3.43124995
 20
13.91533265433332
 30
0.0
 11
-3.43124995
 21
13.80332984800868
 31
0.0
  0
LINE
  5
111
330
1F
100
AcDbEntity
  8
LAYER1
 62
     7
100
AcDbLine
 10
-3.40625
 20
13.77966586591941
 30
0.0
 11
-3.289296118782246
 21
13.77966586591941
 31
0.0
  0
LINE
  5
112
330
1F
100
AcDbEntity
  8
LAYER1
 62
     7
100
AcDbLine
 10
-3.828249156
 20
13.78133292233332
 30
0.0
 11
-3.774249264
 21
13.78133292233332
 31
0.0
  0
LINE
  5
113
330
1F
100
AcDbEntity
  8
LAYER1
 62
     7
100
AcDbLine
 10
-3.521249769999999
 20
13.84533279433332
 30
0.0
 11
-3.521249769999999
 21
13.80332984800868
 31
0.0
  0
LINE
  5
114
330
1F
100
AcDbEntity
  8
LAYER1
 62
     7
100
AcDbLine
 10
-3.266655416689725
 20
13.79833288833332
 30
0.0
 11
-3.151250509999999
 21
13.79833288833332
 31
0.0
  0
LINE
  5
115
330
1F
100
AcDbEntity
  8
LAYER1
 62
     7
100
AcDbLine
 10
-3.916248980000001
 20
13.80133288233332
 30
0.0
 11
-3.84124913
 21
13.80133288233332
 31
0.0
  0
LINE
  5
116
330
1F
100
AcDbEntity
  8
LAYER1
 62
     7
100
AcDbLine
 10
-3.76124929
 20
13.80133288233332
 30
0.0
 11
-3.6062496
 21
13.80133288233332
 31
0.0
  0
LINE
  5
117
330
1F
100
AcDbEntity
  8
LAYER1
 62
     7
100
AcDbLine
 10
-3.521249769999999
 20
13.80332984800868
 30
0.0
 11
-3.40625
 21
13.80332984800868
 31
0.0
  0
LINE
  5
118
330
1F
100
AcDbEntity
  8
LAYER1
 62
     7
100
AcDbLine
 10
-3.58124965
 20
13.84533279433332
 30
0.0
 11
-3.521249769999999
 21
13.84533279433332
 31
0.0
  0
LINE
  5
119
330
1F
100
AcDbEntity
  8
LAYER1
 62
     7
100
AcDbLine
 10
-3.101250609999999
 20
13.57083334333332
 30
0.0
 11
-3.101250609999999
 21
13.64483319533332
 31
0.0
  0
ARC
  5
11A
330
1F
100
AcDbEntity
  8
LAYER1
 62
     7
100
AcDbCircle
 10
-3.41624998
 20
12.83633481233332
 30
0.0
 40
0.0149999699999999
100
AcDbArc
 50
180.0
 51
270.0
  0
ARC
  5
11B
330
1F
100
AcDbEntity
  8
LAYER1
 62
     7
100
AcDbCircle
 10
-3.774249264
 20
12.95733457033332
 30
0.0
 40
0.0129999739999995
100
AcDbArc
 50
0.0
 51
90.0
  0
LINE
  5
11C
330
1F
100
AcDbEntity
  8
LAYER1
 62
     7
100
AcDbLine
 10
-3.18125045
 20
13.95533257433332
 30
0.0
 11
-3.18125045
 21
13.97333253833332
 31
0.0
  0
LINE
  5
11D
330
1F
100
AcDbEntity
  8
LAYER1
 62
     7
100
AcDbLine
 10
-3.2062504
 20
13.95533257433332
 30
0.0
 11
-3.2062504
 21
13.99833248833332
 31
0.0
  0
LINE
  5
11E
330
1F
100
AcDbEntity
  8
LAYER1
 62
     7
100
AcDbLine
 10
-3.26625028
 20
13.79762821296315
 30
0.0
 11
-3.266250279988189
 21
13.78885970448445
 31
0.0
  0
LINE
  5
11F
330
1F
100
AcDbEntity
  8
LAYER1
 62
     7
100
AcDbLine
 10
-3.356250099999999
 20
13.94735868141894
 30
0.0
 11
-3.356250099999999
 21
13.99833248833332
 31
0.0
  0
LINE
  5
120
330
1F
100
AcDbEntity
  8
LAYER1
 62
     7
100
AcDbLine
 10
-3.6062496
 20
13.62333323833332
 30
0.0
 11
-3.94124893
 21
13.62333323833332
 31
0.0
  0
LINE
  5
121
330
1F
100
AcDbEntity
  8
LAYER1
 62
     7
100
AcDbLine
 10
-3.101250609999999
 20
13.63833320833332
 30
0.0
 11
-3.6062496
 21
13.63833320833332
 31
0.0
  0
LINE
  5
122
330
1F
100
AcDbEntity
  8
LAYER1
 62
     7
100
AcDbLine
 10
-3.381250049999998
 20
13.97333253833332
 30
0.0
 11
-3.381250049999998
 21
13.95533257433332
 31
0.0
  0
LINE
  5
123
330
1F
100
AcDbEntity
  8
LAYER1
 62
     7
100
AcDbLine
 10
-3.38257253833927
 20
13.93033262433332
 30
0.0
 11
-3.38257253833927
 21
13.95533257433332
 31
0.0
  0
LINE
  5
124
330
1F
100
AcDbEntity
  8
LAYER1
 62
     7
100
AcDbLine
 10
-3.4562499
 20
13.91533265433332
 30
0.0
 11
-3.4562499
 21
13.80332984800868
 31
0.0
  0
LINE
  5
125
330
1F
100
AcDbEntity
  8
LAYER1
 62
     7
100
AcDbLine
 10
-3.081250649999999
 20
13.72098290691548
 30
0.0
 11
-3.081250649999999
 21
13.65283317933332
 31
0.0
  0
LINE
  5
126
330
1F
100
AcDbEntity
  8
LAYER1
 62
     7
100
AcDbLine
 10
-3.093250626
 20
13.56283335933332
 30
0.0
 11
-3.093250626
 21
13.65283317933332
 31
0.0
  0
LINE
  5
127
330
1F
100
AcDbEntity
  8
LAYER1
 62
     7
100
AcDbLine
 10
-3.347800076006381
 20
13.93503048544546
 30
0.0
 11
-3.345550979772298
 21
13.93530715112047
 31
0.0
  0
ARC
  5
128
330
1F
100
AcDbEntity
  8
LAYER1
 62
     7
100
AcDbCircle
 10
-3.2062504
 20
13.97333253833332
 30
0.0
 40
0.0249999499999998
100
AcDbArc
 50
0.0
 51
90.0
  0
ARC
  5
129
330
1F
100
AcDbEntity
  8
LAYER1
 62
     7
100
AcDbCircle
 10
-3.136250539999999
 20
13.88833270833332
 30
0.0
 40
0.0149999700000016
100
AcDbArc
 50
90.0
 51
180.0
  0
ARC
  5
12A
330
1F
100
AcDbEntity
  8
LAYER1
 62
     7
100
AcDbCircle
 10
-3.093250626
 20
13.64483319533332
 30
0.0
 40
0.0079999839999996
100
AcDbArc
 50
90.0
 51
180.0
  0
ARC
  5
12B
330
1F
100
AcDbEntity
  8
LAYER1
 62
     7
100
AcDbCircle
 10
-3.093250626
 20
13.57083334333332
 30
0.0
 40
0.0079999840000013
100
AcDbArc
 50
180.0
 51
270.0
  0
ARC
  5
12C
330
1F
100
AcDbEntity
  8
LAYER1
 62
     7
100
AcDbCircle
 10
-3.41624998
 20
13.91533265433332
 30
0.0
 40
0.0399999199999996
100
AcDbArc
 50
90.0
 51
180.0
  0
ARC
  5
12D
330
1F
100
AcDbEntity
  8
LAYER1
 62
     7
100
AcDbCircle
 10
-3.58124965
 20
13.82033284433332
 30
0.0
 40
0.0249999499999998
100
AcDbArc
 50
90.0
 51
180.0
  0
ARC
  5
12E
330
1F
100
AcDbEntity
  8
LAYER1
 62
     7
100
AcDbCircle
 10
-3.916248980000001
 20
13.77633293233332
 30
0.0
 40
0.0249999499999998
100
AcDbArc
 50
90.0
 51
180.0
  0
ARC
  5
12F
330
1F
100
AcDbEntity
  8
LAYER1
 62
     7
100
AcDbCircle
 10
-3.356250099999999
 20
13.97333253833332
 30
0.0
 40
0.0249999499999998
100
AcDbArc
 50
90.0
 51
180.0
  0
ARC
  5
130
330
1F
100
AcDbEntity
  8
LAYER1
 62
     7
100
AcDbCircle
 10
-3.41624998
 20
13.91533265433332
 30
0.0
 40
0.0149999700000016
100
AcDbArc
 50
90.0
 51
180.0
  0
ARC
  5
131
330
1F
100
AcDbEntity
  8
LAYER1
 62
     7
100
AcDbCircle
 10
-3.774249264
 20
13.79433289633332
 30
0.0
 40
0.0129999739999995
100
AcDbArc
 50
270.0
 51
0.0
  0
ARC
  5
132
330
1F
100
AcDbEntity
  8
LAYER1
 62
     7
100
AcDbCircle
 10
-3.828249156
 20
13.79433289633332
 30
0.0
 40
0.0129999739999995
100
AcDbArc
 50
180.0
 51
270.0
  0
LINE
  5
133
330
1F
100
AcDbEntity
  8
LAYER1
 62
     7
100
AcDbLine
 10
-2.371252069999999
 20
13.75689921447249
 30
0.0
 11
-2.39625202
 21
13.77133294233332
 31
0.0
  0
ARC
  5
134
330
1F
100
AcDbEntity
  8
LAYER1
 62
     7
100
AcDbCircle
 10
-2.746251319999999
 20
13.85033278433332
 30
0.0
 40
0.104999789999999
100
AcDbArc
 50
0.0
 51
90.0
  0
SPLINE
  5
135
330
1F
100
AcDbEntity
  8
LAYER1
 62
     7
100
AcDbSpline
210
0.0
220
0.0
230
1.0
 70
     8
 71
     3
 72
    16
 73
    12
 74
     0
 42
0.000000001
 43
0.0
 40
0.0
 40
0.0
 40
0.0
 40
0.0
 40
0.1249621439
 40
0.1874646469
 40
0.2499679995
 40
0.3749589408
 40
0.4999585908
 40
0.6249644058
 40
0.7499743973
 40
0.874986727
 40
1.0
 40
1.0
 40
1.0
 40
1.0
 10
-2.639763398157372
 20
13.00006048080259
 30
0.0
 10
-2.639048743346526
 20
13.00431673764439
 30
0.0
 10
-2.637623516830844
 20
13.01064718672756
 30
0.0
 10
-2.635154152371944
 20
13.01892107416794
 30
0.0
 10
-2.632342923163705
 20
13.02708730144175
 30
0.0
 10
-2.628258466297202
 20
13.03708705143828
 30
0.0
 10
-2.622645983108805
 20
13.04876547573886
 30
0.0
 10
-2.616493764393582
 20
13.06016705778605
 30
0.0
 10
-2.609954120779983
 20
13.0713492349807
 30
0.0
 10
-2.603164236718046
 20
13.08238026690285
 30
0.0
 10
-2.598555821533319
 20
13.08968294865178
 30
0.0
 10
-2.596251619999999
 20
13.09333429833332
 30
0.0
  0
SPLINE
  5
136
330
1F
100
AcDbEntity
  8
LAYER1
 62
     7
100
AcDbSpline
210
0.0
220
0.0
230
1.0
 70
     8
 71
     3
 72
    11
 73
     7
 74
     0
 42
0.000000001
 43
0.0
 40
0.0
 40
0.0
 40
0.0
 40
0.0
 40
0.0656602234
 40
0.2600500479
 40
0.5755638746
 40
1.0
 40
1.0
 40
1.0
 40
1.0
 10
-2.637494718769542
 20
12.95333457833332
 30
0.0
 10
-2.637558432669673
 20
12.95435650260443
 30
0.0
 10
-2.637806746637612
 20
12.95840412826901
 30
0.0
 10
-2.638321723131279
 20
12.96736476315872
 30
0.0
 10
-2.63905406632407
 20
12.98191664938954
 30
0.0
 10
-2.639525260665144
 20
12.99344608912589
 30
0.0
 10
-2.639763398157372
 20
13.00006048080259
 30
0.0
  0
SPLINE
  5
137
330
1F
100
AcDbEntity
  8
LAYER1
 62
     7
100
AcDbSpline
210
0.0
220
0.0
230
1.0
 70
     8
 71
     3
 72
    23
 73
    19
 74
     0
 42
0.000000001
 43
0.0
 40
0.0
 40
0.0
 40
0.0
 40
0.0
 40
0.0769812281
 40
0.1535135997
 40
0.2290645526
 40
0.3030537696
 40
0.3749328633
 40
0.4442691798
 40
0.5107993959
 40
0.5744364159
 40
0.6352393949
 40
0.69336946
 40
0.7490491583
 40
0.8025335231
 40
0.8540927753
 40
0.9040035977
 40
0.9525455615
 40
1.0
 40
1.0
 40
1.0
 40
1.0
 10
-3.285355270388367
 20
13.00209150351219
 30
0.0
 10
-3.2846524959514
 20
13.00209150351219
 30
0.0
 10
-3.283250384212321
 20
13.00204064762965
 30
0.0
 10
-3.281170964217626
 20
13.00179818151616
 30
0.0
 10
-3.279146726077133
 20
13.00138144259767
 30
0.0
 10
-3.27721054746131
 20
13.00079000168213
 30
0.0
 10
-3.275394201979836
 20
13.00003250583886
 30
0.0
 10
-3.273724476177561
 20
12.99912598319128
 30
0.0
 10
-3.272220238878957
 20
12.99809323374497
 30
0.0
 10
-3.270891712693494
 20
12.99695938926463
 30
0.0
 10
-3.269741622903126
 20
12.99574890567379
 30
0.0
 10
-3.26876731273364
 20
12.99448368373967
 30
0.0
 10
-3.267962904181044
 20
12.99318232004713
 30
0.0
 10
-3.267321003000282
 20
12.99186011776241
 30
0.0
 10
-3.266833834805329
 20
12.99052950693544
 30
0.0
 10
-3.266493904296215
 20
12.98920047763288
 30
0.0
 10
-3.266294313959175
 20
12.98788136231048
 30
0.0
 10
-3.266250279996063
 20
12.98700438558413
 30
0.0
 10
-3.266250279992125
 20
12.9865711661238
 30
0.0
  0
SPLINE
  5
138
330
1F
100
AcDbEntity
  8
LAYER1
 62
     7
100
AcDbSpline
210
0.0
220
0.0
230
1.0
 70
     8
 71
     3
 72
    21
 73
    17
 74
     0
 42
0.000000001
 43
0.0
 40
0.0
 40
0.0
 40
0.0
 40
0.0
 40
0.0623852051
 40
0.1247763451
 40
0.1871765842
 40
0.2495889148
 40
0.3120160836
 40
0.3744605535
 40
0.4993390326
 40
0.6243077577
 40
0.6868635241
 40
0.7494437913
 40
0.8120483611
 40
0.8746766354
 40
0.9373276361
 40
1.0
 40
1.0
 40
1.0
 40
1.0
 10
-3.388217697548928
 20
12.79633489233332
 30
0.0
 10
-3.387326872889636
 20
12.79633489234513
 30
0.0
 10
-3.38554455600546
 20
12.79639491315816
 30
0.0
 10
-3.382883492843343
 20
12.79666458879991
 30
0.0
 10
-3.380246081937074
 20
12.79711272208868
 30
0.0
 10
-3.377644338636633
 20
12.79773730878439
 30
0.0
 10
-3.375089767147362
 20
12.7985356573058
 30
0.0
 10
-3.371762906903458
 20
12.79982655755077
 30
0.0
 10
-3.367776315656183
 20
12.8018565707112
 30
0.0
 10
-3.364096763527114
 20
12.8044038845142
 30
0.0
 10
-3.361377911488452
 20
12.80672301993498
 30
0.0
 10
-3.359458059749421
 20
12.80859713187179
 30
0.0
 10
-3.357667654381419
 20
12.8105965024439
 30
0.0
 10
-3.356014695718841
 20
12.81271228066116
 30
0.0
 10
-3.354506827352694
 20
12.81493480455862
 30
0.0
 10
-3.353602851991356
 20
12.81648108595424
 30
0.0
 10
-3.353177335767588
 20
12.81726837682454
 30
0.0
  0
SPLINE
  5
139
330
1F
100
AcDbEntity
  8
LAYER1
 62
     7
100
AcDbSpline
210
0.0
220
0.0
230
1.0
 70
     8
 71
     3
 72
    19
 73
    15
 74
     0
 42
0.000000001
 43
0.0
 40
0.0
 40
0.0
 40
0.0
 40
0.0
 40
0.1250212177
 40
0.2500399507
 40
0.3750552109
 40
0.5000655402
 40
0.5625683621
 40
0.6250691115
 40
0.6875673664
 40
0.7500626173
 40
0.8125542577
 40
0.8750415793
 40
0.9375237799
 40
1.0
 40
1.0
 40
1.0
 40
1.0
 10
-3.353177335736092
 20
12.81726837681666
 30
0.0
 10
-3.349363235399741
 20
12.82422454003817
 30
0.0
 10
-3.341756782852833
 20
12.83814863003639
 30
0.0
 10
-3.330428025821417
 20
12.85907845056249
 30
0.0
 10
-3.319201443648641
 20
12.88006250990531
 30
0.0
 10
-3.30995485441351
 20
12.89760655241952
 30
0.0
 10
-3.302643299772869
 20
12.91168587937105
 30
0.0
 10
-3.297209311447956
 20
12.92227042935938
 30
0.0
 10
-3.291832738854666
 20
12.93288373884532
 30
0.0
 10
-3.286523068525208
 20
12.94353005754083
 30
0.0
 10
-3.2812917838815
 20
12.95421437333357
 30
0.0
 10
-3.276152873033356
 20
12.96494256690864
 30
0.0
 10
-3.271123462391412
 20
12.97572149531531
 30
0.0
 10
-3.26785730175839
 20
12.98294707132475
 30
0.0
 10
-3.266250279992125
 20
12.98657116660804
 30
0.0
  0
SPLINE
  5
13A
330
1F
100
AcDbEntity
  8
LAYER1
 62
     7
100
AcDbSpline
210
0.0
220
0.0
230
1.0
 70
     8
 71
     3
 72
    15
 73
    11
 74
     0
 42
0.000000001
 43
0.0
 40
0.0
 40
0.0
 40
0.0
 40
0.0
 40
0.1249987147
 40
0.2499978033
 40
0.3749972936
 40
0.4999971881
 40
0.6249974644
 40
0.7499980753
 40
0.8749989506
 40
1.0
 40
1.0
 40
1.0
 40
1.0
 10
-3.348072298308391
 20
12.81666994844266
 30
0.0
 10
-3.348944850543599
 20
12.81513289048135
 30
0.0
 10
-3.350896865052949
 20
12.81217107916876
 30
0.0
 10
-3.354384519242979
 20
12.80815753849113
 30
0.0
 10
-3.358371779272382
 20
12.80463853061184
 30
0.0
 10
-3.362787442417414
 20
12.80167532460519
 30
0.0
 10
-3.367554021399986
 20
12.79931780958007
 30
0.0
 10
-3.37258872371245
 20
12.79760555768569
 30
0.0
 10
-3.377803240078672
 20
12.79656691872754
 30
0.0
 10
-3.381342587645632
 20
12.79633489233332
 30
0.0
 10
-3.383110074921674
 20
12.79633489233332
 30
0.0
  0
SPLINE
  5
13B
330
1F
100
AcDbEntity
  8
LAYER1
 62
     7
100
AcDbSpline
210
0.0
220
0.0
230
1.0
 70
     8
 71
     3
 72
    14
 73
    10
 74
     0
 42
0.000000001
 43
0.0
 40
0.0
 40
0.0
 40
0.0
 40
0.0
 40
0.1249999073
 40
0.2499998773
 40
0.374999879
 40
0.4999998977
 40
0.6249999258
 40
0.7499999595
 40
1.0
 40
1.0
 40
1.0
 40
1.0
 10
-3.26625028
 20
12.9630847668211
 30
0.0
 10
-3.269581253751426
 20
12.95694095449457
 30
0.0
 10
-3.276280128156799
 20
12.94467333139601
 30
0.0
 10
-3.286408768950658
 20
12.92631606864604
 30
0.0
 10
-3.296597604840661
 20
12.90799215370339
 30
0.0
 10
-3.306832605976918
 20
12.88969399663049
 30
0.0
 10
-3.317103759887326
 20
12.87141611252885
 30
0.0
 10
-3.330837130940212
 20
12.84706728293133
 30
0.0
 10
-3.341171973408281
 20
12.82882532310824
 30
0.0
 10
-3.348072298308391
 20
12.81666994844266
 30
0.0
  0
SPLINE
  5
13C
330
1F
100
AcDbEntity
  8
LAYER1
 62
     7
100
AcDbSpline
210
0.0
220
0.0
230
1.0
 70
     8
 71
     3
 72
    11
 73
     7
 74
     0
 42
0.000000001
 43
0.0
 40
0.0
 40
0.0
 40
0.0
 40
0.0
 40
0.0656602234
 40
0.2600500479
 40
0.5755638746
 40
1.0
 40
1.0
 40
1.0
 40
1.0
 10
-2.637494718769542
 20
13.79833288833332
 30
0.0
 10
-2.637558432669673
 20
13.79731096406222
 30
0.0
 10
-2.637806746637612
 20
13.79326333839764
 30
0.0
 10
-2.638321723131279
 20
13.78430270350792
 30
0.0
 10
-2.63905406632407
 20
13.76975081727711
 30
0.0
 10
-2.639525260665144
 20
13.75822137754076
 30
0.0
 10
-2.639763398157372
 20
13.75160698586406
 30
0.0
  0
SPLINE
  5
13D
330
1F
100
AcDbEntity
  8
LAYER1
 62
     7
100
AcDbSpline
210
0.0
220
0.0
230
1.0
 70
     8
 71
     3
 72
    16
 73
    12
 74
     0
 42
0.000000001
 43
0.0
 40
0.0
 40
0.0
 40
0.0
 40
0.0
 40
0.1249621439
 40
0.1874646469
 40
0.2499679995
 40
0.3749589408
 40
0.4999585908
 40
0.6249644058
 40
0.7499743973
 40
0.874986727
 40
1.0
 40
1.0
 40
1.0
 40
1.0
 10
-2.639763398157372
 20
13.75160698586406
 30
0.0
 10
-2.639048743346526
 20
13.74735072902225
 30
0.0
 10
-2.637623516830844
 20
13.74102027993908
 30
0.0
 10
-2.635154152371944
 20
13.7327463924987
 30
0.0
 10
-2.632342923163705
 20
13.72458016522489
 30
0.0
 10
-2.628258466297202
 20
13.71458041522837
 30
0.0
 10
-2.622645983108805
 20
13.70290199092778
 30
0.0
 10
-2.616493764393582
 20
13.6915004088806
 30
0.0
 10
-2.609954120779983
 20
13.68031823168594
 30
0.0
 10
-2.603164236718046
 20
13.6692871997638
 30
0.0
 10
-2.598555821533319
 20
13.66198451801486
 30
0.0
 10
-2.596251619999999
 20
13.65833316833332
 30
0.0
  0
SPLINE
  5
13E
330
1F
100
AcDbEntity
  8
LAYER1
 62
     7
100
AcDbSpline
210
0.0
220
0.0
230
1.0
 70
     8
 71
     3
 72
    24
 73
    20
 74
     0
 42
0.000000001
 43
0.0
 40
0.0
 40
0.0
 40
0.0
 40
0.0
 40
0.1250045621
 40
0.187522807
 40
0.2500399276
 40
0.3750055219
 40
0.4375169955
 40
0.5000253606
 40
0.5625296391
 40
0.6250285576
 40
0.6875205003
 40
0.7500036178
 40
0.8124761661
 40
0.8437315579
 40
0.8749862654
 40
0.9062403416
 40
0.9374938871
 40
0.9687470486
 40
1.0
 40
1.0
 40
1.0
 40
1.0
 10
-3.081250649999999
 20
13.03068455975116
 30
0.0
 10
-3.081250649999999
 20
13.02900054642628
 30
0.0
 10
-3.081361639124477
 20
13.02647187310175
 30
0.0
 10
-3.081761723068402
 20
13.02312592539208
 30
0.0
 10
-3.082341793924007
 20
13.01980720060041
 30
0.0
 10
-3.083212516729802
 20
13.01654246922044
 30
0.0
 10
-3.084416764159885
 20
13.0133946611263
 30
0.0
 10
-3.08550013178842
 20
13.01110932404738
 30
0.0
 10
-3.086775673186152
 20
13.00892495879407
 30
0.0
 10
-3.088254951786643
 20
13.00687225990735
 30
0.0
 10
-3.089946934634954
 20
13.00498977560146
 30
0.0
 10
-3.09185452072135
 20
13.00332494695475
 30
0.0
 10
-3.093619832883631
 20
13.00216470135792
 30
0.0
 10
-3.095123785230053
 20
13.00140446798075
 30
0.0
 10
-3.09629395657868
 20
13.00092503045144
 30
0.0
 10
-3.09749968895855
 20
13.00054368791491
 30
0.0
 10
-3.098733642888275
 20
13.00026646893786
 30
0.0
 10
-3.099987042928714
 20
13.00009812201471
 30
0.0
 10
-3.100829582275127
 20
13.00006048080259
 30
0.0
 10
-3.101250609999999
 20
13.00006048080259
 30
0.0
  0
SPLINE
  5
13F
330
1F
100
AcDbEntity
  8
LAYER1
 62
     7
100
AcDbSpline
210
0.0
220
0.0
230
1.0
 70
     8
 71
     3
 72
    19
 73
    15
 74
     0
 42
0.000000001
 43
0.0
 40
0.0
 40
0.0
 40
0.0
 40
0.0
 40
0.125000178
 40
0.2500003263
 40
0.3750004236
 40
0.5000004293
 40
0.5625005056
 40
0.6250005683
 40
0.6875006114
 40
0.750000626
 40
0.8125005988
 40
0.8750005095
 40
0.9375003264
 40
1.0
 40
1.0
 40
1.0
 40
1.0
 10
-3.374827927643484
 20
12.82918489892845
 30
0.0
 10
-3.3709155461533
 20
12.83629312853874
 30
0.0
 10
-3.363111218171436
 20
12.85052084935883
 30
0.0
 10
-3.351480978727238
 20
12.87190409599776
 30
0.0
 10
-3.339947098889532
 20
12.89333949357964
 30
0.0
 10
-3.330438692016619
 20
12.91125754936157
 30
0.0
 10
-3.322913635673061
 20
12.92563492940596
 30
0.0
 10
-3.317317306279127
 20
12.93644269554235
 30
0.0
 10
-3.311776214507004
 20
12.94727889800376
 30
0.0
 10
-3.306299942699727
 20
12.9581480226513
 30
0.0
 10
-3.300900296790379
 20
12.96905544237972
 30
0.0
 10
-3.295591972592087
 20
12.98000764568
 30
0.0
 10
-3.290393452288361
 20
12.99101242157197
 30
0.0
 10
-3.287016522254834
 20
12.99839036345779
 30
0.0
 10
-3.285355270388367
 20
13.00209150351219
 30
0.0
  0
SPLINE
  5
140
330
1F
100
AcDbEntity
  8
LAYER1
 62
     7
100
AcDbSpline
210
0.0
220
0.0
230
1.0
 70
     8
 71
     3
 72
    17
 73
    13
 74
     0
 42
0.000000001
 43
0.0
 40
0.0
 40
0.0
 40
0.0
 40
0.0
 40
0.1249850268
 40
0.2499697137
 40
0.3749538021
 40
0.4374799506
 40
0.5000060456
 40
0.6249883277
 40
0.7499695177
 40
0.8124952973
 40
0.8750210114
 40
1.0
 40
1.0
 40
1.0
 40
1.0
 10
-3.388217696367828
 20
12.82133484233332
 30
0.0
 10
-3.387539745641055
 20
12.82133484243175
 30
0.0
 10
-3.386182125316932
 20
12.82142418926487
 30
0.0
 10
-3.384182405032917
 20
12.821824115091
 30
0.0
 10
-3.38257332455817
 20
12.82237416469956
 30
0.0
 10
-3.381339076802261
 20
12.82293841947262
 30
0.0
 10
-3.380144949848001
 20
12.82358328936792
 30
0.0
 10
-3.378736817002853
 20
12.82453642204432
 30
0.0
 10
-3.377468692468241
 20
12.82566927469987
 30
0.0
 10
-3.376552959217035
 20
12.82667096840908
 30
0.0
 10
-3.375707030282912
 20
12.82773198097209
 30
0.0
 10
-3.375154812170814
 20
12.82859099717925
 30
0.0
 10
-3.374827927643484
 20
12.82918489892845
 30
0.0
  0
SPLINE
  5
141
330
1F
100
AcDbEntity
  8
LAYER1
 62
     7
100
AcDbSpline
210
0.0
220
0.0
230
1.0
 70
     8
 71
     3
 72
    24
 73
    20
 74
     0
 42
0.000000001
 43
0.0
 40
0.0
 40
0.0
 40
0.0
 40
0.0
 40
0.0312529513
 40
0.0625061126
 40
0.093759658
 40
0.1250137341
 40
0.1562684414
 40
0.1875238331
 40
0.2499963811
 40
0.3124794983
 40
0.3749714408
 40
0.4374703594
 40
0.4999746379
 40
0.5624830026
 40
0.6249944769
 40
0.7499600755
 40
0.8124771963
 40
0.8749954416
 40
1.0
 40
1.0
 40
1.0
 40
1.0
 10
-3.101250609999999
 20
13.75160698586406
 30
0.0
 10
-3.100829582275127
 20
13.75160698586406
 30
0.0
 10
-3.09998704293265
 20
13.75156934465194
 30
0.0
 10
-3.098733642900086
 20
13.75140099773273
 30
0.0
 10
-3.097499688974297
 20
13.75112377875567
 30
0.0
 10
-3.096293956598366
 20
13.75074243622308
 30
0.0
 10
-3.095123785257611
 20
13.7502629986977
 30
0.0
 10
-3.093619832911191
 20
13.74950276532447
 30
0.0
 10
-3.091854520756783
 20
13.74834251973552
 30
0.0
 10
-3.089946934674325
 20
13.74667769110455
 30
0.0
 10
-3.088254951826013
 20
13.74479520680654
 30
0.0
 10
-3.086775673217646
 20
13.74274250792769
 30
0.0
 10
-3.085500131819916
 20
13.74055814267832
 30
0.0
 10
-3.084416764183507
 20
13.7382728055994
 30
0.0
 10
-3.083212516725865
 20
13.73512499744621
 30
0.0
 10
-3.08234179390826
 20
13.73186026599931
 30
0.0
 10
-3.081761723048718
 20
13.72854154114071
 30
0.0
 10
-3.081361639120541
 20
13.72519559347041
 30
0.0
 10
-3.081250649999999
 20
13.72266692018918
 30
0.0
 10
-3.081250649999999
 20
13.72098290691548
 30
0.0
  0
SPLINE
  5
142
330
1F
100
AcDbEntity
  8
LAYER1
 62
     7
100
AcDbSpline
210
0.0
220
0.0
230
1.0
 70
     8
 71
     3
 72
    26
 73
    22
 74
     0
 42
0.000000001
 43
0.0
 40
0.0
 40
0.0
 40
0.0
 40
0.0
 40
0.014709208
 40
0.029911068
 40
0.0624947322
 40
0.0802438941
 40
0.0991219508
 40
0.1192292766
 40
0.1406444241
 40
0.1634259011
 40
0.1876138079
 40
0.2402689579
 40
0.2986295865
 40
0.3624709471
 40
0.4313747754
 40
0.5047669163
 40
0.5819651498
 40
0.6622333666
 40
0.7448341179
 40
0.8290714267
 40
1.0
 40
1.0
 40
1.0
 40
1.0
 10
-3.266250279988189
 20
13.78885970448445
 30
0.0
 10
-3.266250279980314
 20
13.78873025771972
 30
0.0
 10
-3.266267521343469
 20
13.78846673092395
 30
0.0
 10
-3.266371526237823
 20
13.78792552371502
 30
0.0
 10
-3.266581927155602
 20
13.78738272371007
 30
0.0
 10
-3.266881459847873
 20
13.78685186568518
 30
0.0
 10
-3.267164809261489
 20
13.78643993174921
 30
0.0
 10
-3.267500544208128
 20
13.78602720575576
 30
0.0
 10
-3.267888774498594
 20
13.78561485706471
 30
0.0
 10
-3.268329385011073
 20
13.78520435405501
 30
0.0
 10
-3.269005616859394
 20
13.78464566208972
 30
0.0
 10
-3.269984583692795
 20
13.78396547021782
 30
0.0
 10
-3.27132449554446
 20
13.78320528589568
 30
0.0
 10
-3.272849765852182
 20
13.78249301181629
 30
0.0
 10
-3.274544385962935
 20
13.78184188637051
 30
0.0
 10
-3.276388640372845
 20
13.78126358956648
 30
0.0
 10
-3.278359849674512
 20
13.78076753216096
 30
0.0
 10
-3.280433820408453
 20
13.78036029137308
 30
0.0
 10
-3.282586386981263
 20
13.78004543427051
 30
0.0
 10
-3.285544716907111
 20
13.77974848367937
 30
0.0
 10
-3.287791880676554
 20
13.77966586591547
 30
0.0
 10
-3.289296118782246
 20
13.77966586591941
 30
0.0
  0
SPLINE
  5
143
330
1F
100
AcDbEntity
  8
LAYER1
 62
     7
100
AcDbSpline
210
0.0
220
0.0
230
1.0
 70
     8
 71
     3
 72
    14
 73
    10
 74
     0
 42
0.000000001
 43
0.0
 40
0.0
 40
0.0
 40
0.0
 40
0.0
 40
0.1249999126
 40
0.2499998852
 40
0.3749998876
 40
0.4999999056
 40
0.6249999315
 40
0.7499999619
 40
1.0
 40
1.0
 40
1.0
 40
1.0
 10
-3.289296118782246
 20
13.77966586591941
 30
0.0
 10
-3.292562518025024
 20
13.78566704265719
 30
0.0
 10
-3.299130618762812
 20
13.79765019829713
 30
0.0
 10
-3.309058543926607
 20
13.81558311603752
 30
0.0
 10
-3.319042657170939
 20
13.83348480661202
 30
0.0
 10
-3.329069482042446
 20
13.85136259830912
 30
0.0
 10
-3.33912950862314
 20
13.86922172442938
 30
0.0
 10
-3.352578013226077
 20
13.89301405939974
 30
0.0
 10
-3.362695981450731
 20
13.9108404322981
 30
0.0
 10
-3.369450667917707
 20
13.92271934108354
 30
0.0
  0
SPLINE
  5
144
330
1F
100
AcDbEntity
  8
LAYER1
 62
     7
100
AcDbSpline
210
0.0
220
0.0
230
1.0
 70
     8
 71
     3
 72
    15
 73
    11
 74
     0
 42
0.000000001
 43
0.0
 40
0.0
 40
0.0
 40
0.0
 40
0.0
 40
0.124998906
 40
0.2499981479
 40
0.3749977423
 40
0.4999976821
 40
0.6249979373
 40
0.7499984569
 40
0.874999172
 40
1.0
 40
1.0
 40
1.0
 40
1.0
 10
-3.369450667917707
 20
13.92271934108354
 30
0.0
 10
-3.369777812082317
 20
13.92329466225573
 30
0.0
 10
-3.370509412170295
 20
13.92440326719206
 30
0.0
 10
-3.371815958935148
 20
13.92590562144325
 30
0.0
 10
-3.373309273125679
 20
13.92722299371008
 30
0.0
 10
-3.374962800444603
 20
13.92833245164076
 30
0.0
 10
-3.376747625689905
 20
13.92921528072549
 30
0.0
 10
-3.378632826537606
 20
13.92985659447042
 30
0.0
 10
-3.380585381703353
 20
13.93024568520012
 30
0.0
 10
-3.381910699064527
 20
13.9303326242349
 30
0.0
 10
-3.38257253833927
 20
13.93033262433332
 30
0.0
  0
SPLINE
  5
145
330
1F
100
AcDbEntity
  8
LAYER1
 62
     7
100
AcDbSpline
210
0.0
220
0.0
230
1.0
 70
     8
 71
     3
 72
    15
 73
    11
 74
     0
 42
0.000000001
 43
0.0
 40
0.0
 40
0.0
 40
0.0
 40
0.0
 40
0.1251012531
 40
0.2501724192
 40
0.3752115812
 40
0.500218824
 40
0.6251962906
 40
0.7501481141
 40
0.8750802201
 40
1.0
 40
1.0
 40
1.0
 40
1.0
 10
-3.347800076018192
 20
13.93503048544152
 30
0.0
 10
-3.348665336492392
 20
13.93656137908445
 30
0.0
 10
-3.350600217843095
 20
13.93951224625357
 30
0.0
 10
-3.354057268704569
 20
13.94351476473671
 30
0.0
 10
-3.358010581278243
 20
13.94702737846737
 30
0.0
 10
-3.362390661919639
 20
13.94998808215225
 30
0.0
 10
-3.3671213029544
 20
13.95234582594069
 30
0.0
 10
-3.372120483932397
 20
13.9540596933161
 30
0.0
 10
-3.377300113112486
 20
13.955100034011
 30
0.0
 10
-3.380816593705497
 20
13.95533257430576
 30
0.0
 10
-3.382572539622732
 20
13.95533257433332
 30
0.0
  0
SPLINE
  5
146
330
1F
100
AcDbEntity
  8
LAYER1
 62
     7
100
AcDbSpline
210
0.0
220
0.0
230
1.0
 70
     8
 71
     3
 72
    14
 73
    10
 74
     0
 42
0.000000001
 43
0.0
 40
0.0
 40
0.0
 40
0.0
 40
0.0
 40
0.1249825614
 40
0.2499746072
 40
0.3749725647
 40
0.499974334
 40
0.6249786368
 40
0.7499846717
 40
1.0
 40
1.0
 40
1.0
 40
1.0
 10
-3.266250279988189
 20
13.78885970412225
 30
0.0
 10
-3.269553806180335
 20
13.79500090448943
 30
0.0
 10
-3.276207861675347
 20
13.80725864213139
 30
0.0
 10
-3.286287465945232
 20
13.82559196616151
 30
0.0
 10
-3.296439040831018
 20
13.84388674257583
 30
0.0
 10
-3.30664431027477
 20
13.86215238130038
 30
0.0
 10
-3.316890626915955
 20
13.88039553415259
 30
0.0
 10
-3.330595244396427
 20
13.90469621464955
 30
0.0
 10
-3.340911553283453
 20
13.92290048517795
 30
0.0
 10
-3.347800076006381
 20
13.93503048544546
 30
0.0
  0
SPLINE
  5
147
330
1F
100
AcDbEntity
  8
LAYER1
 62
     7
100
AcDbSpline
210
0.0
220
0.0
230
1.0
 70
     8
 71
     3
 72
    15
 73
    11
 74
     0
 42
0.000000001
 43
0.0
 40
0.0
 40
0.0
 40
0.0
 40
0.0
 40
0.1250000804
 40
0.2500001467
 40
0.3750001926
 40
0.5000002129
 40
0.6250002043
 40
0.7500001652
 40
0.875000096
 40
1.0
 40
1.0
 40
1.0
 40
1.0
 10
-3.380222366850646
 20
13.95533257433332
 30
0.0
 10
-3.378476499247901
 20
13.95533257432939
 30
0.0
 10
-3.374980453365989
 20
13.95510354031108
 30
0.0
 10
-3.369829543537907
 20
13.95407872643551
 30
0.0
 10
-3.36485558731655
 20
13.95239012878515
 30
0.0
 10
-3.36014492697411
 20
13.95006654903469
 30
0.0
 10
-3.355778004361516
 20
13.94714775323056
 30
0.0
 10
-3.351829616187441
 20
13.94368336963965
 30
0.0
 10
-3.348368064771975
 20
13.93973369284611
 30
0.0
 10
-3.346423078520225
 20
13.93681959604046
 30
0.0
 10
-3.345550979886472
 20
13.93530715130945
 30
0.0
  0
SPLINE
  5
148
330
1F
100
AcDbEntity
  8
LAYER1
 62
     7
100
AcDbSpline
210
0.0
220
0.0
230
1.0
 70
     8
 71
     3
 72
    11
 73
     7
 74
     0
 42
0.000000001
 43
0.0
 40
0.0
 40
0.0
 40
0.0
 40
0.0
 40
0.2499999977
 40
0.4999999979
 40
0.7499999988
 40
1.0
 40
1.0
 40
1.0
 40
1.0
 10
-3.26625028
 20
13.79762821296315
 30
0.0
 10
-3.272848538850699
 20
13.80910728902464
 30
0.0
 10
-3.286054155506342
 20
13.83206021113051
 30
0.0
 10
-3.305877795807802
 20
13.86648083299385
 30
0.0
 10
-3.325710908011576
 20
13.90089599816339
 30
0.0
 10
-3.338937141700789
 20
13.92383704422608
 30
0.0
 10
-3.345550979886472
 20
13.93530715130945
 30
0.0
  0
LINE
  5
149
330
1F
100
AcDbEntity
  8
LAYER1
 62
     7
100
AcDbLine
 10
-3.43124995
 20
13.91533265433332
 30
0.0
 11
-3.4562499
 21
13.91533265433332
 31
0.0
  0
LINE
  5
14A
330
1F
100
AcDbEntity
  8
LAYER1
 62
     7
100
AcDbLine
 10
-3.38257253833927
 20
13.93033262433332
 30
0.0
 11
-3.41624998
 21
13.93033262433332
 31
0.0
  0
LINE
  5
14B
330
1F
100
AcDbEntity
  8
LAYER1
 62
     7
100
AcDbLine
 10
-3.369450667917707
 20
13.92271934108354
 30
0.0
 11
-3.347800076211104
 21
13.9350304856305
 31
0.0
  0
LINE
  5
14C
330
1F
100
AcDbEntity
  8
LAYER1
 62
     7
100
AcDbLine
 10
-3.380222366850646
 20
13.95533257433332
 30
0.0
 11
-3.41624998
 21
13.95533257433332
 31
0.0
  0
LINE
  5
14D
330
1F
100
AcDbEntity
  8
LAYER1
 62
     7
100
AcDbLine
 10
-3.18125045
 20
13.97333253833332
 30
0.0
 11
-3.381250049999998
 21
13.97333253833332
 31
0.0
  0
ENDSEC
  0
SECTION
  2
OBJECTS
  0
DICTIONARY
  5
C
330
0
100
AcDbDictionary
  3
ACAD_GROUP
350
D
  3
ACAD_LAYOUT
350
1A
  3
ACAD_MATERIAL
350
43
  3
ACAD_MLEADERSTYLE
350
6B
  3
ACAD_MLINESTYLE
350
17
  3
ACAD_PLOTSETTINGS
350
19
  3
ACAD_SCALELIST
350
47
  3
ACAD_VISUALSTYLE
350
2A
  3
ACDBHEADERROUNDTRIPXREC
350
14E
  3
ACDBVARIABLEDICTIONARY
350
16F
  0
DICTIONARY
  5
176
330
8
100
AcDbDictionary
280
     1
  3
ACAD_XREC_ROUNDTRIP
360
177
  0
DICTIONARY
  5
D
102
{ACAD_REACTORS
330
C
102
}
330
C
100
AcDbDictionary
  0
DICTIONARY
  5
1A
102
{ACAD_REACTORS
330
C
102
}
330
C
100
AcDbDictionary
  0
DICTIONARY
  5
43
102
{ACAD_REACTORS
330
C
102
}
330
C
100
AcDbDictionary
  3
BYBLOCK
350
45
  3
BYLAYER
350
44
  3
GLOBAL
350
46
  0
DICTIONARY
  5
6B
102
{ACAD_REACTORS
330
C
102
}
330
C
100
AcDbDictionary
  3
STANDARD
350
6C
  0
DICTIONARY
  5
17
102
{ACAD_REACTORS
330
C
102
}
330
C
100
AcDbDictionary
  3
STANDARD
350
18
  0
DICTIONARY
  5
19
102
{ACAD_REACTORS
330
C
102
}
330
C
100
AcDbDictionary
  0
DICTIONARY
  5
47
102
{ACAD_REACTORS
330
C
102
}
330
C
100
AcDbDictionary
  3
A0
350
48
  3
A1
350
49
  3
A2
350
4A
  3
A3
350
4B
  3
A4
350
4C
  3
A5
350
4D
  3
A6
350
4E
  3
A7
350
4F
  3
A8
350
50
  3
A9
350
51
  3
B0
350
52
  3
B1
350
53
  3
B2
350
54
  3
B3
350
55
  3
B4
350
56
  3
B5
350
57
  3
B6
350
58
  3
B7
350
59
  3
B8
350
5A
  3
B9
350
5B
  3
C0
350
5C
  3
C1
350
5D
  3
C2
350
5E
  3
C3
350
5F
  3
C4
350
60
  3
C5
350
61
  3
C6
350
62
  3
C7
350
63
  3
C8
350
64
  3
C9
350
65
  3
D0
350
66
  3
D1
350
67
  3
D2
350
68
  0
DICTIONARY
  5
2A
102
{ACAD_REACTORS
330
C
102
}
330
C
100
AcDbDictionary
  3
2DWIREFRAME
350
2F
  3
BASIC
350
32
  3
BRIGHTEN
350
36
  3
COLORCHANGE
350
3A
  3
CONCEPTUAL
350
34
  3
DIM
350
35
  3
EDGECOLOROFF
350
3D
  3
FACEPATTERN
350
39
  3
FLAT
350
2B
  3
FLATWITHEDGES
350
2C
  3
GOURAUD
350
2D
  3
GOURAUDWITHEDGES
350
2E
  3
HIDDEN
350
31
  3
JITTEROFF
350
3B
  3
LINEPATTERN
350
38
  3
OVERHANGOFF
350
3C
  3
REALISTIC
350
33
  3
SHADED
350
42
  3
SHADED_WITH_EDGES
350
41
  3
SHADES_OF_GRAY
350
3E
  3
SKETCHY
350
3F
  3
THICKEN
350
37
  3
WIREFRAME
350
30
  3
X-RAY
350
40
  0
DICTIONARY
  5
14E
102
{ACAD_REACTORS
330
C
102
}
330
C
100
AcDbDictionary
  3
CEPSNID
350
158
  3
CEPSNTYPE
350
157
  3
DIMSTYLEDATA
350
16E
  3
FINGERPRINTGUID
350
159
  3
HYPERLINKBASE
350
151
  3
INSUNITS
350
156
  3
LAYOUTDICT
350
153
  3
LWETCUNION
350
155
  3
PLOTSETDICT
350
154
  3
PSVPSCALE
350
15B
  3
PUCSBASE
350
15E
  3
PUCSORGBACK
350
164
  3
PUCSORGBOTTOM
350
160
  3
PUCSORGFRONT
350
163
  3
PUCSORGLEFT
350
161
  3
PUCSORGRIGHT
350
162
  3
PUCSORGTOP
350
15F
  3
PUCSORTHOREF
350
15C
  3
PUCSORTHOVIEW
350
15D
  3
STYLESHEET
350
152
  3
TSTACKALIGN
350
14F
  3
TSTACKSIZE
350
150
  3
UCSBASE
350
167
  3
UCSORGBACK
350
16D
  3
UCSORGBOTTOM
350
169
  3
UCSORGFRONT
350
16C
  3
UCSORGLEFT
350
16A
  3
UCSORGRIGHT
350
16B
  3
UCSORGTOP
350
168
  3
UCSORTHOREF
350
165
  3
UCSORTHOVIEW
350
166
  3
VERSIONGUID
350
15A
  0
DICTIONARY
  5
16F
102
{ACAD_REACTORS
330
C
102
}
330
C
100
AcDbDictionary
  3
CANNOSCALE
350
178
  3
CMLEADERSTYLE
350
171
  3
CTABLESTYLE
350
170
  3
DIMASSOC
350
174
  3
HIDETEXT
350
175
  3
MSLTSCALE
350
179
  0
XRECORD
  5
177
102
{ACAD_REACTORS
330
176
102
}
330
176
100
AcDbXrecord
102
VTR_0.000_0.000_1.000_1.000_VISUALSTYLE
340
2F
102
VTR_0.000_0.000_1.000_1.000_GRIDDISPLAY
 70
     3
102
VTR_0.000_0.000_1.000_1.000_GRIDMAJOR
 70
     5
102
VTR_0.000_0.000_1.000_1.000_DEFAULTLIGHTING
280
     1
102
VTR_0.000_0.000_1.000_1.000_DEFAULTLIGHTINGTYPE
 70
     1
102
VTR_0.000_0.000_1.000_1.000_BRIGHTNESS
141
0.0
102
VTR_0.000_0.000_1.000_1.000_CONTRAST
142
0.0
  0
MATERIAL
  5
45
102
{ACAD_REACTORS
330
43
102
}
102
{ACAD_XDICTIONARY
360
17C
102
}
330
43
100
AcDbMaterial
  1
BYBLOCK
  0
MATERIAL
  5
44
102
{ACAD_REACTORS
330
43
102
}
102
{ACAD_XDICTIONARY
360
17A
102
}
330
43
100
AcDbMaterial
  1
BYLAYER
  0
MATERIAL
  5
46
102
{ACAD_REACTORS
330
43
102
}
102
{ACAD_XDICTIONARY
360
17E
102
}
330
43
100
AcDbMaterial
  1
GLOBAL
  0
ACAD_PROXY_OBJECT
  5
6C
102
{ACAD_REACTORS
330
6B
102
}
330
6B
100
AcDbProxyObject
 90
      499
 91
      505
 93
      610
310
40901902A4063FBFFFFFE056BD1B81E855B9FC0AD7A3703D0AD73F4214DD185B99185C9900AD7A3703D0AC73F90141901A02B5E8DC0F42B1CFC02B5E8DC0F42B1CFE5764000000000000300FC0
340
14
340
0
340
11
340
0
 94
        0
1001
ACAD_MLEADERVER
1070
     2
  0
MLINESTYLE
  5
18
102
{ACAD_REACTORS
330
17
102
}
330
17
100
AcDbMlineStyle
  2
Standard
 70
     0
  3

 62
   256
 51
90.0
 52
90.0
 71
     2
 49
0.5
 62
   256
  6
BYLAYER
 49
-0.5
 62
   256
  6
BYLAYER
  0
ACAD_PROXY_OBJECT
  5
48
102
{ACAD_REACTORS
330
47
102
}
330
47
100
AcDbProxyObject
 90
      499
 91
      503
 93
       41
310
903313A31580
  0
ACAD_PROXY_OBJECT
  5
49
102
{ACAD_REACTORS
330
47
102
}
330
47
100
AcDbProxyObject
 90
      499
 91
      503
 93
      105
310
903313A324000000000000004000
  0
ACAD_PROXY_OBJECT
  5
4A
102
{ACAD_REACTORS
330
47
102
}
330
47
100
AcDbProxyObject
 90
      499
 91
      503
 93
      105
310
903313A344000000000000104000
  0
ACAD_PROXY_OBJECT
  5
4B
102
{ACAD_REACTORS
330
47
102
}
330
47
100
AcDbProxyObject
 90
      499
 91
      503
 93
      105
310
903313A354000000000000144000
  0
ACAD_PROXY_OBJECT
  5
4C
102
{ACAD_REACTORS
330
47
102
}
330
47
100
AcDbProxyObject
 90
      499
 91
      503
 93
      105
310
903313A384000000000000204000
  0
ACAD_PROXY_OBJECT
  5
4D
102
{ACAD_REACTORS
330
47
102
}
330
47
100
AcDbProxyObject
 90
      499
 91
      503
 93
      113
310
904313A31304000000000000244000
  0
ACAD_PROXY_OBJECT
  5
4E
102
{ACAD_REACTORS
330
47
102
}
330
47
100
AcDbProxyObject
 90
      499
 91
      503
 93
      113
310
904313A31364000000000000304000
  0
ACAD_PROXY_OBJECT
  5
4F
102
{ACAD_REACTORS
330
47
102
}
330
47
100
AcDbProxyObject
 90
      499
 91
      503
 93
      113
310
904313A32304000000000000344000
  0
ACAD_PROXY_OBJECT
  5
50
102
{ACAD_REACTORS
330
47
102
}
330
47
100
AcDbProxyObject
 90
      499
 91
      503
 93
      113
310
904313A333040000000000003E4000
  0
ACAD_PROXY_OBJECT
  5
51
102
{ACAD_REACTORS
330
47
102
}
330
47
100
AcDbProxyObject
 90
      499
 91
      503
 93
      113
310
904313A34304000000000000444000
  0
ACAD_PROXY_OBJECT
  5
52
102
{ACAD_REACTORS
330
47
102
}
330
47
100
AcDbProxyObject
 90
      499
 91
      503
 93
      113
310
904313A35304000000000000494000
  0
ACAD_PROXY_OBJECT
  5
53
102
{ACAD_REACTORS
330
47
102
}
330
47
100
AcDbProxyObject
 90
      499
 91
      503
 93
      121
310
905313A3130304000000000000594000
  0
ACAD_PROXY_OBJECT
  5
54
102
{ACAD_REACTORS
330
47
102
}
330
47
100
AcDbProxyObject
 90
      499
 91
      503
 93
      105
310
903323A310000000000000010100
  0
ACAD_PROXY_OBJECT
  5
55
102
{ACAD_REACTORS
330
47
102
}
330
47
100
AcDbProxyObject
 90
      499
 91
      503
 93
      105
310
903343A310000000000000410100
  0
ACAD_PROXY_OBJECT
  5
56
102
{ACAD_REACTORS
330
47
102
}
330
47
100
AcDbProxyObject
 90
      499
 91
      503
 93
      105
310
903383A310000000000000810100
  0
ACAD_PROXY_OBJECT
  5
57
102
{ACAD_REACTORS
330
47
102
}
330
47
100
AcDbProxyObject
 90
      499
 91
      503
 93
      113
310
90431303A310000000000000910100
  0
ACAD_PROXY_OBJECT
  5
58
102
{ACAD_REACTORS
330
47
102
}
330
47
100
AcDbProxyObject
 90
      499
 91
      503
 93
      121
310
9053130303A310000000000001650100
  0
ACAD_PROXY_OBJECT
  5
59
102
{ACAD_REACTORS
330
47
102
}
330
47
100
AcDbProxyObject
 90
      499
 91
      503
 93
      257
310
90E312F31323822203D2031272D3022000000000000200FC000000000000284000
  0
ACAD_PROXY_OBJECT
  5
5A
102
{ACAD_REACTORS
330
47
102
}
330
47
100
AcDbProxyObject
 90
      499
 91
      503
 93
      249
310
90D312F363422203D2031272D3022000000000000240FC000000000000284000
  0
ACAD_PROXY_OBJECT
  5
5B
102
{ACAD_REACTORS
330
47
102
}
330
47
100
AcDbProxyObject
 90
      499
 91
      503
 93
      249
310
90D312F333222203D2031272D3022000000000000280FC000000000000284000
  0
ACAD_PROXY_OBJECT
  5
5C
102
{ACAD_REACTORS
330
47
102
}
330
47
100
AcDbProxyObject
 90
      499
 91
      503
 93
      249
310
90D312F313622203D2031272D30220000000000002C0FC000000000000284000
  0
ACAD_PROXY_OBJECT
  5
5D
102
{ACAD_REACTORS
330
47
102
}
330
47
100
AcDbProxyObject
 90
      499
 91
      503
 93
      249
310
90D332F333222203D2031272D30220000000000002E0FC000000000000284000
  0
ACAD_PROXY_OBJECT
  5
5E
102
{ACAD_REACTORS
330
47
102
}
330
47
100
AcDbProxyObject
 90
      499
 91
      503
 93
      241
310
90C312F3822203D2031272D3022000000000000300FC000000000000284000
  0
ACAD_PROXY_OBJECT
  5
5F
102
{ACAD_REACTORS
330
47
102
}
330
47
100
AcDbProxyObject
 90
      499
 91
      503
 93
      249
310
90D332F313622203D2031272D3022000000000000320FC000000000000284000
  0
ACAD_PROXY_OBJECT
  5
60
102
{ACAD_REACTORS
330
47
102
}
330
47
100
AcDbProxyObject
 90
      499
 91
      503
 93
      241
310
90C312F3422203D2031272D3022000000000000340FC000000000000284000
  0
ACAD_PROXY_OBJECT
  5
61
102
{ACAD_REACTORS
330
47
102
}
330
47
100
AcDbProxyObject
 90
      499
 91
      503
 93
      241
310
90C332F3822203D2031272D3022000000000000360FC000000000000284000
  0
ACAD_PROXY_OBJECT
  5
62
102
{ACAD_REACTORS
330
47
102
}
330
47
100
AcDbProxyObject
 90
      499
 91
      503
 93
      241
310
90C312F3222203D2031272D3022000000000000380FC000000000000284000
  0
ACAD_PROXY_OBJECT
  5
63
102
{ACAD_REACTORS
330
47
102
}
330
47
100
AcDbProxyObject
 90
      499
 91
      503
 93
      241
310
90C332F3422203D2031272D30220000000000003A0FC000000000000284000
  0
ACAD_PROXY_OBJECT
  5
64
102
{ACAD_REACTORS
330
47
102
}
330
47
100
AcDbProxyObject
 90
      499
 91
      503
 93
      161
310
90A3122203D2031272D30224000000000000284000
  0
ACAD_PROXY_OBJECT
  5
65
102
{ACAD_REACTORS
330
47
102
}
330
47
100
AcDbProxyObject
 90
      499
 91
      503
 93
      257
310
90E312D312F3222203D2031272D30220000000000003E0FC000000000000284000
  0
ACAD_PROXY_OBJECT
  5
66
102
{ACAD_REACTORS
330
47
102
}
330
47
100
AcDbProxyObject
 90
      499
 91
      503
 93
      225
310
90A3322203D2031272D302200000000000002100000000000000284000
  0
ACAD_PROXY_OBJECT
  5
67
102
{ACAD_REACTORS
330
47
102
}
330
47
100
AcDbProxyObject
 90
      499
 91
      503
 93
      225
310
90A3622203D2031272D302200000000000006100000000000000284000
  0
ACAD_PROXY_OBJECT
  5
68
102
{ACAD_REACTORS
330
47
102
}
330
47
100
AcDbProxyObject
 90
      499
 91
      503
 93
      249
310
90D31272D3022203D2031272D30220000000000000A100000000000000284000
  0
ACAD_PROXY_OBJECT
  5
2F
102
{ACAD_REACTORS
330
2A
102
}
330
2A
100
AcDbProxyObject
 90
      499
 91
      501
 93
      436
310
42CC9915DA5C99599C985B595049028333333333333E33F0000000000000F90107901411070040501600405405064090741402480A0340
1001
ACAD
1000
AcDbSavedByObjectVersion
1070
     0
  0
ACAD_PROXY_OBJECT
  5
32
102
{ACAD_REACTORS
330
2A
102
}
330
2A
100
AcDbProxyObject
 90
      499
 91
      501
 93
      388
310
4150985CDA58D07406404333333333333E33F0000000000000F90107A41107004050150841D405064090741402480A0350
1001
ACAD
1000
AcDbSavedByObjectVersion
1070
     0
  0
ACAD_PROXY_OBJECT
  5
36
102
{ACAD_REACTORS
330
2A
102
}
330
2A
100
AcDbProxyObject
 90
      499
 91
      501
 93
      428
310
42109C9A59DA1D195B90C409028333333333333E33F0000000000000F9010790141107004050150841D405064090741402480A029950
1001
ACAD
1000
AcDbSavedByObjectVersion
1070
     0
  0
ACAD_PROXY_OBJECT
  5
3A
102
{ACAD_REACTORS
330
2A
102
}
330
2A
100
AcDbProxyObject
 90
      499
 91
      501
 93
      452
310
42D0DBDB1BDC90DA185B99D95104090240C333333333333E33F0000000000000F90108901411070040501508421405064090741402480A0350
1001
ACAD
1000
AcDbSavedByObjectVersion
1070
     0
  0
ACAD_PROXY_OBJECT
  5
34
102
{ACAD_REACTORS
330
2A
102
}
330
2A
100
AcDbProxyObject
 90
      499
 91
      501
 93
      500
310
4290DBDB98D95C1D1D585B10940D028333333333333E33F0000000000000F90107902409070040501000000000018199010841D405064090740C02480A0340
1001
ACAD
1000
AcDbSavedByObjectVersion
1070
     0
  0
ACAD_PROXY_OBJECT
  5
35
102
{ACAD_REACTORS
330
2A
102
}
330
2A
100
AcDbProxyObject
 90
      499
 91
      501
 93
      412
310
40D11A5B50B409028333333333333E33F0000000000000F9010790141107004050150841D405064090741402480A02677FFFFFD0
1001
ACAD
1000
AcDbSavedByObjectVersion
1070
     0
  0
ACAD_PROXY_OBJECT
  5
3D
102
{ACAD_REACTORS
330
2A
102
}
330
2A
100
AcDbProxyObject
 90
      499
 91
      501
 93
      452
310
43115919D950DBDB1BDC93D999916409028333333333333E33F0000000000000F9010790141107004050150841D405064090741402480A0350
1001
ACAD
1000
AcDbSavedByObjectVersion
1070
     0
  0
ACAD_PROXY_OBJECT
  5
39
102
{ACAD_REACTORS
330
2A
102
}
330
2A
100
AcDbProxyObject
 90
      499
 91
      501
 93
      444
310
42D19858D95C185D1D195C9B90F409028333333333333E33F0000000000000F9010790141107004050150841D405064090741402480A0350
1001
ACAD
1000
AcDbSavedByObjectVersion
1070
     0
  0
ACAD_PROXY_OBJECT
  5
2B
102
{ACAD_REACTORS
330
2A
102
}
330
2A
100
AcDbProxyObject
 90
      499
 91
      501
 93
      380
310
41119B185D240901404333333333333E33F0000000000000F9010740A907004050150841D405064090741402480A1B50
1001
ACAD
1000
AcDbSavedByObjectVersion
1070
     0
  0
ACAD_PROXY_OBJECT
  5
2C
102
{ACAD_REACTORS
330
2A
102
}
330
2A
100
AcDbProxyObject
 90
      499
 91
      501
 93
      468
310
43519B185D15DA5D1A115919D95CD0140901404333333333333E33F0000000000000F90107409019070040501600405405064090741402480A1B50
1001
ACAD
1000
AcDbSavedByObjectVersion
1070
     0
  0
ACAD_PROXY_OBJECT
  5
2D
102
{ACAD_REACTORS
330
2A
102
}
330
2A
100
AcDbProxyObject
 90
      499
 91
      501
 93
      404
310
41D1DBDD5C985D5910240902404333333333333E33F0000000000000F9010740A9070040501641D405064090741402480A1B50
1001
ACAD
1000
AcDbSavedByObjectVersion
1070
     0
  0
ACAD_PROXY_OBJECT
  5
2E
102
{ACAD_REACTORS
330
2A
102
}
330
2A
100
AcDbProxyObject
 90
      499
 91
      501
 93
      492
310
4411DBDD5C985D5915DA5D1A115919D95CD0340902404333333333333E33F0000000000000F90107409019070040501600405405064090741402480A1B50
1001
ACAD
1000
AcDbSavedByObjectVersion
1070
     0
  0
ACAD_PROXY_OBJECT
  5
31
102
{ACAD_REACTORS
330
2A
102
}
330
2A
100
AcDbProxyObject
 90
      499
 91
      501
 93
      476
310
41921A5919195B90640502408333333333333E33F0000000000000F901079024090700405020000000000001110200405405064090740C02480A0340
1001
ACAD
1000
AcDbSavedByObjectVersion
1070
     0
  0
ACAD_PROXY_OBJECT
  5
3B
102
{ACAD_REACTORS
330
2A
102
}
330
2A
100
AcDbProxyObject
 90
      499
 91
      501
 93
      428
310
42529A5D1D195C93D999914409028333333333333E33F0000000000000F9010790141107004050150A41D405064090741402480A0350
1001
ACAD
1000
AcDbSavedByObjectVersion
1070
     0
  0
ACAD_PROXY_OBJECT
  5
38
102
{ACAD_REACTORS
330
2A
102
}
330
2A
100
AcDbProxyObject
 90
      499
 91
      501
 93
      444
310
42D31A5B995C185D1D195C9B90E409028333333333333E33F0000000000000F9010790141107004050750841D405064090741402483A0350
1001
ACAD
1000
AcDbSavedByObjectVersion
1070
     0
  0
ACAD_PROXY_OBJECT
  5
3C
102
{ACAD_REACTORS
330
2A
102
}
330
2A
100
AcDbProxyObject
 90
      499
 91
      501
 93
      444
310
42D3DD995C9A185B99D3D999915409028333333333333E33F0000000000000F9010790141107004050150941D405064090741402480A0350
1001
ACAD
1000
AcDbSavedByObjectVersion
1070
     0
  0
ACAD_PROXY_OBJECT
  5
33
102
{ACAD_REACTORS
330
2A
102
}
330
2A
100
AcDbProxyObject
 90
      499
 91
      501
 93
      428
310
425499585B1A5CDD1A58D08409038333333333333E33F0000000000000F9010740A907004050150800405405064090740C02480A1B40
1001
ACAD
1000
AcDbSavedByObjectVersion
1070
     0
  0
ACAD_PROXY_OBJECT
  5
42
102
{ACAD_REACTORS
330
2A
102
}
330
2A
100
AcDbProxyObject
 90
      499
 91
      501
 93
      420
310
4194DA1859195911B40902404333333333333E33F0000000000000F9010740A41107004050150800405405064090840C02480A0B40
1001
ACAD
1000
AcDbSavedByObjectVersion
1070
     0
  0
ACAD_PROXY_OBJECT
  5
41
102
{ACAD_REACTORS
330
2A
102
}
330
2A
100
AcDbProxyObject
 90
      499
 91
      501
 93
      516
310
4454DA18591959081DDA5D1A08195919D95CD1A40902404333333333333E33F0000000000000F901074090142907004050250800405405064090740C02480A0B40
1001
ACAD
1000
AcDbSavedByObjectVersion
1070
     0
  0
ACAD_PROXY_OBJECT
  5
3E
102
{ACAD_REACTORS
330
2A
102
}
330
2A
100
AcDbProxyObject
 90
      499
 91
      501
 93
      532
310
4394DA1859195CC81BD98811DC985E5174090240C333333333333E33F0000000000000F901079024090741D01000000000000111010841D405064090740C02480A0340
1001
ACAD
1000
AcDbSavedByObjectVersion
1070
     0
  0
ACAD_PROXY_OBJECT
  5
3F
102
{ACAD_REACTORS
330
2A
102
}
330
2A
100
AcDbProxyObject
 90
      499
 91
      501
 93
      476
310
41D4DAD95D18DA1E51840502408333333333333E33F0000000000000F901079024090741D01000000000000111010B41D405064090741802480A0340
1001
ACAD
1000
AcDbSavedByObjectVersion
1070
     0
  0
ACAD_PROXY_OBJECT
  5
37
102
{ACAD_REACTORS
330
2A
102
}
330
2A
100
AcDbProxyObject
 90
      499
 91
      501
 93
      412
310
41D51A1A58DAD95B90D409028333333333333E33F0000000000000F9010790141107004050150C41D405064090741402480A0350
1001
ACAD
1000
AcDbSavedByObjectVersion
1070
     0
  0
ACAD_PROXY_OBJECT
  5
30
102
{ACAD_REACTORS
330
2A
102
}
330
2A
100
AcDbProxyObject
 90
      499
 91
      501
 93
      420
310
4255DA5C99599C985B595059028333333333333E33F0000000000000F90107901411070040501600405405064090740C02480A0340
1001
ACAD
1000
AcDbSavedByObjectVersion
1070
     0
  0
ACAD_PROXY_OBJECT
  5
40
102
{ACAD_REACTORS
330
2A
102
}
330
2A
100
AcDbProxyObject
 90
      499
 91
      501
 93
      404
310
41560B54985E51940902404000000000000E03F0000000000000F9010740501907004050150841D405064090740C02480A1B40
1001
ACAD
1000
AcDbSavedByObjectVersion
1070
     0
  0
XRECORD
  5
158
102
{ACAD_REACTORS
330
14E
102
}
330
14E
100
AcDbXrecord
340
0
  0
XRECORD
  5
157
102
{ACAD_REACTORS
330
14E
102
}
330
14E
100
AcDbXrecord
 90
        0
  0
XRECORD
  5
16E
102
{ACAD_REACTORS
330
14E
102
}
330
14E
100
AcDbXrecord
1000
DSTYLE
1002
{
1070
   340
340
11
1002
}
  0
XRECORD
  5
159
102
{ACAD_REACTORS
330
14E
102
}
330
14E
100
AcDbXrecord
  1
{8F14B094-E2D1-4712-8D0F-65C1E3E520D0}
  0
XRECORD
  5
151
102
{ACAD_REACTORS
330
14E
102
}
330
14E
100
AcDbXrecord
  1

  0
XRECORD
  5
156
102
{ACAD_REACTORS
330
14E
102
}
330
14E
100
AcDbXrecord
 90
        1
  0
XRECORD
  5
153
102
{ACAD_REACTORS
330
14E
102
}
330
14E
100
AcDbXrecord
340
1A
  0
XRECORD
  5
155
102
{ACAD_REACTORS
330
14E
102
}
330
14E
100
AcDbXrecord
 90
    10781
  0
XRECORD
  5
154
102
{ACAD_REACTORS
330
14E
102
}
330
14E
100
AcDbXrecord
340
19
  0
XRECORD
  5
15B
102
{ACAD_REACTORS
330
14E
102
}
330
14E
100
AcDbXrecord
 40
0.0
  0
XRECORD
  5
15E
102
{ACAD_REACTORS
330
14E
102
}
330
14E
100
AcDbXrecord
340
0
  0
XRECORD
  5
164
102
{ACAD_REACTORS
330
14E
102
}
330
14E
100
AcDbXrecord
 10
0.0
 20
0.0
 30
0.0
  0
XRECORD
  5
160
102
{ACAD_REACTORS
330
14E
102
}
330
14E
100
AcDbXrecord
 10
0.0
 20
0.0
 30
0.0
  0
XRECORD
  5
163
102
{ACAD_REACTORS
330
14E
102
}
330
14E
100
AcDbXrecord
 10
0.0
 20
0.0
 30
0.0
  0
XRECORD
  5
161
102
{ACAD_REACTORS
330
14E
102
}
330
14E
100
AcDbXrecord
 10
0.0
 20
0.0
 30
0.0
  0
XRECORD
  5
162
102
{ACAD_REACTORS
330
14E
102
}
330
14E
100
AcDbXrecord
 10
0.0
 20
0.0
 30
0.0
  0
XRECORD
  5
15F
102
{ACAD_REACTORS
330
14E
102
}
330
14E
100
AcDbXrecord
 10
0.0
 20
0.0
 30
0.0
  0
XRECORD
  5
15C
102
{ACAD_REACTORS
330
14E
102
}
330
14E
100
AcDbXrecord
340
0
  0
XRECORD
  5
15D
102
{ACAD_REACTORS
330
14E
102
}
330
14E
100
AcDbXrecord
 70
     0
  0
XRECORD
  5
152
102
{ACAD_REACTORS
330
14E
102
}
330
14E
100
AcDbXrecord
  1

  0
XRECORD
  5
14F
102
{ACAD_REACTORS
330
14E
102
}
330
14E
100
AcDbXrecord
 90
        1
  0
XRECORD
  5
150
102
{ACAD_REACTORS
330
14E
102
}
330
14E
100
AcDbXrecord
 90
       70
  0
XRECORD
  5
167
102
{ACAD_REACTORS
330
14E
102
}
330
14E
100
AcDbXrecord
340
0
  0
XRECORD
  5
16D
102
{ACAD_REACTORS
330
14E
102
}
330
14E
100
AcDbXrecord
 10
0.0
 20
0.0
 30
0.0
  0
XRECORD
  5
169
102
{ACAD_REACTORS
330
14E
102
}
330
14E
100
AcDbXrecord
 10
0.0
 20
0.0
 30
0.0
  0
XRECORD
  5
16C
102
{ACAD_REACTORS
330
14E
102
}
330
14E
100
AcDbXrecord
 10
0.0
 20
0.0
 30
0.0
  0
XRECORD
  5
16A
102
{ACAD_REACTORS
330
14E
102
}
330
14E
100
AcDbXrecord
 10
0.0
 20
0.0
 30
0.0
  0
XRECORD
  5
16B
102
{ACAD_REACTORS
330
14E
102
}
330
14E
100
AcDbXrecord
 10
0.0
 20
0.0
 30
0.0
  0
XRECORD
  5
168
102
{ACAD_REACTORS
330
14E
102
}
330
14E
100
AcDbXrecord
 10
0.0
 20
0.0
 30
0.0
  0
XRECORD
  5
165
102
{ACAD_REACTORS
330
14E
102
}
330
14E
100
AcDbXrecord
340
0
  0
XRECORD
  5
166
102
{ACAD_REACTORS
330
14E
102
}
330
14E
100
AcDbXrecord
 70
     0
  0
XRECORD
  5
15A
102
{ACAD_REACTORS
330
14E
102
}
330
14E
100
AcDbXrecord
  1
{FAEB1C32-E019-11D5-929B-00C0DF256EC4}
  0
DICTIONARYVAR
  5
178
102
{ACAD_REACTORS
330
16F
102
}
330
16F
100
DictionaryVariables
280
     0
  1
1:1
  0
DICTIONARYVAR
  5
171
102
{ACAD_REACTORS
330
16F
102
}
330
16F
100
DictionaryVariables
280
     0
  1
Standard
  0
DICTIONARYVAR
  5
170
102
{ACAD_REACTORS
330
16F
102
}
330
16F
100
DictionaryVariables
280
     0
  1
Standard
  0
DICTIONARYVAR
  5
174
102
{ACAD_REACTORS
330
16F
102
}
330
16F
100
DictionaryVariables
280
     0
  1
2
  0
DICTIONARYVAR
  5
175
102
{ACAD_REACTORS
330
16F
102
}
330
16F
100
DictionaryVariables
280
     0
  1
1
  0
DICTIONARYVAR
  5
179
102
{ACAD_REACTORS
330
16F
102
}
330
16F
100
DictionaryVariables
280
     0
  1
1
  0
DICTIONARY
  5
17C
330
45
100
AcDbDictionary
280
     1
  3
ACAD_XREC_ROUNDTRIP
360
17D
  0
DICTIONARY
  5
17A
330
44
100
AcDbDictionary
280
     1
  3
ACAD_XREC_ROUNDTRIP
360
17B
  0
DICTIONARY
  5
17E
330
46
100
AcDbDictionary
280
     1
  3
ACAD_XREC_ROUNDTRIP
360
17F
  0
XRECORD
  5
17D
102
{ACAD_REACTORS
330
17C
102
}
330
17C
100
AcDbXrecord
102
MATERIAL
148
0.0
149
0.0
149
0.0
 93
        0
 94
      127
282
     0
 72
     1
 77
     1
171
     1
175
     1
179
     1
273
     0
  0
XRECORD
  5
17B
102
{ACAD_REACTORS
330
17A
102
}
330
17A
100
AcDbXrecord
102
MATERIAL
148
0.0
149
0.0
149
0.0
 93
        0
 94
      127
282
     0
 72
     1
 77
     1
171
     1
175
     1
179
     1
273
     0
  0
XRECORD
  5
17F
102
{ACAD_REACTORS
330
17E
102
}
330
17E
100
AcDbXrecord
102
MATERIAL
148
0.0
149
0.0
149
0.0
 93
        0
 94
      127
282
     0
 72
     1
 77
     1
171
     1
175
     1
179
     1
273
     0
  0
ENDSEC
  0
EOF
