  0
SECTION
  2
HEADER
  9
$ACADVER
  1
AC1014
  9
$ACADMAINTVER
 70
     9
  9
$DWGCODEPAGE
  3
MAC-ROMAN
  9
$INSBASE
 10
0.0
 20
0.0
 30
0.0
  9
$EXTMIN
 10
1.000000000000000E+20
 20
1.000000000000000E+20
 30
1.000000000000000E+20
  9
$EXTMAX
 10
-1.000000000000000E+20
 20
-1.000000000000000E+20
 30
-1.000000000000000E+20
  9
$LIMMIN
 10
0.0
 20
0.0
  9
$LIMMAX
 10
12.0
 20
9.0
  9
$ORTHOMODE
 70
     0
  9
$REGENMODE
 70
     1
  9
$FILLMODE
 70
     1
  9
$QTEXTMODE
 70
     0
  9
$MIRRTEXT
 70
     1
  9
$DRAGMODE
 70
     2
  9
$LTSCALE
 40
1.0
  9
$OSMODE
 70
    37
  9
$ATTMODE
 70
     1
  9
$TEXTSIZE
 40
0.2
  9
$TRACEWID
 40
0.05
  9
$TEXTSTYLE
  7
STANDARD
  9
$CLAYER
  8
0
  9
$CELTYPE
  6
BYLAYER
  9
$CECOLOR
 62
   256
  9
$CELTSCALE
 40
1.0
  9
$DELOBJ
 70
     1
  9
$DISPSILH
 70
     0
  9
$DIMSCALE
 40
1.0
  9
$DIMASZ
 40
0.18
  9
$DIMEXO
 40
0.0625
  9
$DIMDLI
 40
0.38
  9
$DIMRND
 40
0.0
  9
$DIMDLE
 40
0.0
  9
$DIMEXE
 40
0.18
  9
$DIMTP
 40
0.0
  9
$DIMTM
 40
0.0
  9
$DIMTXT
 40
0.18
  9
$DIMCEN
 40
0.09
  9
$DIMTSZ
 40
0.0
  9
$DIMTOL
 70
     0
  9
$DIMLIM
 70
     0
  9
$DIMTIH
 70
     1
  9
$DIMTOH
 70
     1
  9
$DIMSE1
 70
     0
  9
$DIMSE2
 70
     0
  9
$DIMTAD
 70
     0
  9
$DIMZIN
 70
     0
  9
$DIMBLK
  1

  9
$DIMASO
 70
     1
  9
$DIMSHO
 70
     1
  9
$DIMPOST
  1

  9
$DIMAPOST
  1

  9
$DIMALT
 70
     0
  9
$DIMALTD
 70
     2
  9
$DIMALTF
 40
25.4
  9
$DIMLFAC
 40
1.0
  9
$DIMTOFL
 70
     0
  9
$DIMTVP
 40
0.0
  9
$DIMTIX
 70
     0
  9
$DIMSOXD
 70
     0
  9
$DIMSAH
 70
     0
  9
$DIMBLK1
  1

  9
$DIMBLK2
  1

  9
$DIMSTYLE
  2
STANDARD
  9
$DIMCLRD
 70
     0
  9
$DIMCLRE
 70
     0
  9
$DIMCLRT
 70
     0
  9
$DIMTFAC
 40
1.0
  9
$DIMGAP
 40
0.09
  9
$DIMJUST
 70
     0
  9
$DIMSD1
 70
     0
  9
$DIMSD2
 70
     0
  9
$DIMTOLJ
 70
     1
  9
$DIMTZIN
 70
     0
  9
$DIMALTZ
 70
     0
  9
$DIMALTTZ
 70
     0
  9
$DIMFIT
 70
     3
  9
$DIMUPT
 70
     0
  9
$DIMUNIT
 70
     2
  9
$DIMDEC
 70
     4
  9
$DIMTDEC
 70
     4
  9
$DIMALTU
 70
     2
  9
$DIMALTTD
 70
     2
  9
$DIMTXSTY
  7
STANDARD
  9
$DIMAUNIT
 70
     0
  9
$LUNITS
 70
     2
  9
$LUPREC
 70
     4
  9
$SKETCHINC
 40
0.1
  9
$FILLETRAD
 40
0.5
  9
$AUNITS
 70
     0
  9
$AUPREC
 70
     0
  9
$MENU
  1
.
  9
$ELEVATION
 40
0.0
  9
$PELEVATION
 40
0.0
  9
$THICKNESS
 40
0.0
  9
$LIMCHECK
 70
     0
  9
$CHAMFERA
 40
0.0
  9
$CHAMFERB
 40
0.0
  9
$CHAMFERC
 40
0.0
  9
$CHAMFERD
 40
0.0
  9
$SKPOLY
 70
     0
  9
$TDCREATE
 40
2457809.868526482
  9
$TDUPDATE
 40
2457809.868528982
  9
$TDINDWG
 40
0.0000000116
  9
$TDUSRTIMER
 40
0.0000000116
  9
$USRTIMER
 70
     1
  9
$ANGBASE
 50
0.0
  9
$ANGDIR
 70
     0
  9
$PDMODE
 70
     0
  9
$PDSIZE
 40
0.0
  9
$PLINEWID
 40
0.0
  9
$COORDS
 70
     1
  9
$SPLFRAME
 70
     0
  9
$SPLINETYPE
 70
     6
  9
$SPLINESEGS
 70
     8
  9
$ATTDIA
 70
     0
  9
$ATTREQ
 70
     1
  9
$HANDLING
 70
     1
  9
$HANDSEED
  5
16A
  9
$SURFTAB1
 70
     6
  9
$SURFTAB2
 70
     6
  9
$SURFTYPE
 70
     6
  9
$SURFU
 70
     6
  9
$SURFV
 70
     6
  9
$UCSNAME
  2

  9
$UCSORG
 10
0.0
 20
0.0
 30
0.0
  9
$UCSXDIR
 10
1.0
 20
0.0
 30
0.0
  9
$UCSYDIR
 10
0.0
 20
1.0
 30
0.0
  9
$PUCSNAME
  2

  9
$PUCSORG
 10
0.0
 20
0.0
 30
0.0
  9
$PUCSXDIR
 10
1.0
 20
0.0
 30
0.0
  9
$PUCSYDIR
 10
0.0
 20
1.0
 30
0.0
  9
$USERI1
 70
     0
  9
$USERI2
 70
     0
  9
$USERI3
 70
     0
  9
$USERI4
 70
     0
  9
$USERI5
 70
     0
  9
$USERR1
 40
0.0
  9
$USERR2
 40
0.0
  9
$USERR3
 40
0.0
  9
$USERR4
 40
0.0
  9
$USERR5
 40
0.0
  9
$WORLDVIEW
 70
     1
  9
$SHADEDGE
 70
     3
  9
$SHADEDIF
 70
    70
  9
$TILEMODE
 70
     1
  9
$MAXACTVP
 70
    64
  9
$PINSBASE
 10
0.0
 20
0.0
 30
0.0
  9
$PLIMCHECK
 70
     0
  9
$PEXTMIN
 10
1.000000000000000E+20
 20
1.000000000000000E+20
 30
1.000000000000000E+20
  9
$PEXTMAX
 10
-1.000000000000000E+20
 20
-1.000000000000000E+20
 30
-1.000000000000000E+20
  9
$PLIMMIN
 10
0.0
 20
0.0
  9
$PLIMMAX
 10
12.0
 20
9.0
  9
$UNITMODE
 70
     0
  9
$VISRETAIN
 70
     1
  9
$PLINEGEN
 70
     0
  9
$PSLTSCALE
 70
     1
  9
$TREEDEPTH
 70
  3020
  9
$PICKSTYLE
 70
     1
  9
$CMLSTYLE
  2
STANDARD
  9
$CMLJUST
 70
     0
  9
$CMLSCALE
 40
1.0
  9
$PROXYGRAPHICS
 70
     1
  9
$MEASUREMENT
 70
     0
  0
ENDSEC
  0
SECTION
  2
CLASSES
  0
CLASS
  1
ACDBDICTIONARYWDFLT
  2
AcDbDictionaryWithDefault
  3
ObjectDBX Classes
 90
        0
280
     0
281
     0
  0
CLASS
  1
VISUALSTYLE
  2
AcDbVisualStyle
  3
ObjectDBX Classes
 90
     4095
280
     0
281
     0
  0
CLASS
  1
MATERIAL
  2
AcDbMaterial
  3
ObjectDBX Classes
 90
     1153
280
     0
281
     0
  0
CLASS
  1
SCALE
  2
AcDbScale
  3
ObjectDBX Classes
 90
     1153
280
     0
281
     0
  0
CLASS
  1
TABLESTYLE
  2
AcDbTableStyle
  3
ObjectDBX Classes
 90
     4095
280
     0
281
     0
  0
CLASS
  1
MLEADERSTYLE
  2
AcDbMLeaderStyle
  3
ACDB_MLEADERSTYLE_CLASS
 90
     4095
280
     0
281
     0
  0
CLASS
  1
SUN
  2
AcDbSun
  3
SCENEOE
 90
     1153
280
     0
281
     0
  0
CLASS
  1
DICTIONARYVAR
  2
AcDbDictionaryVar
  3
ObjectDBX Classes
 90
        0
280
     0
281
     0
  0
CLASS
  1
XRECORD
  2
AcDbXrecord
  3
ObjectDBX Classes
 90
        0
280
     0
281
     0
  0
CLASS
  1
LWPOLYLINE
  2
AcDbPolyline
  3
ObjectDBX Classes
 90
        0
280
     0
281
     1
  0
CLASS
  1
HATCH
  2
AcDbHatch
  3
ObjectDBX Classes
 90
        0
280
     0
281
     1
  0
CLASS
  1
ACDBPLACEHOLDER
  2
AcDbPlaceHolder
  3
ObjectDBX Classes
 90
        0
280
     0
281
     0
  0
CLASS
  1
LAYOUT
  2
AcDbLayout
  3
ObjectDBX Classes
 90
        0
280
     0
281
     0
  0
ENDSEC
  0
SECTION
  2
TABLES
  0
TABLE
  2
VPORT
  5
8
102
{ACAD_XDICTIONARY
360
15F
102
}
330
0
100
AcDbSymbolTable
 70
     1
  0
VPORT
  5
29
330
8
100
AcDbSymbolTableRecord
100
AcDbViewportTableRecord
  2
*ACTIVE
 70
     0
 10
0.0
 20
0.0
 11
1.0
 21
1.0
 12
10.42990654205607
 22
4.5
 13
0.0
 23
0.0
 14
0.5
 24
0.5
 15
0.5
 25
0.5
 16
0.0
 26
0.0
 36
1.0
 17
0.0
 27
0.0
 37
0.0
 40
9.0
 41
1.972972972850329
 42
50.0
 43
0.0
 44
0.0
 50
0.0
 51
0.0
 71
     0
 72
   100
 73
     1
 74
     3
 75
     0
 76
     0
 77
     0
 78
     0
  0
ENDTAB
  0
TABLE
  2
LTYPE
  5
5
330
0
100
AcDbSymbolTable
 70
    11
  0
LTYPE
  5
14
330
5
100
AcDbSymbolTableRecord
100
AcDbLinetypeTableRecord
  2
BYBLOCK
 70
     0
  3

 72
    65
 73
     0
 40
0.0
  0
LTYPE
  5
15
330
5
100
AcDbSymbolTableRecord
100
AcDbLinetypeTableRecord
  2
BYLAYER
 70
     0
  3

 72
    65
 73
     0
 40
0.0
  0
LTYPE
  5
16
330
5
100
AcDbSymbolTableRecord
100
AcDbLinetypeTableRecord
  2
CONTINUOUS
 70
     0
  3
Solid line
 72
    65
 73
     0
 40
0.0
  0
LTYPE
  5
93
330
5
100
AcDbSymbolTableRecord
100
AcDbLinetypeTableRecord
  2
STITCH_G
 70
     0
  3
Graphite's line style                   
 72
    65
 73
     2
 40
0.1449999958276749
 49
0.0724999979138374
 74
     0
 49
-0.0724999979138374
 74
     0
  0
LTYPE
  5
94
330
5
100
AcDbSymbolTableRecord
100
AcDbLinetypeTableRecord
  2
CUTTING_G
 70
     0
  3
Graphite's line style                   
 72
    65
 73
     6
 40
1.467499993741512
 49
1.0
 74
     0
 49
-0.0724999979138374
 74
     0
 49
0.125
 74
     0
 49
-0.0724999979138374
 74
     0
 49
0.125
 74
     0
 49
-0.0724999979138374
 74
     0
  0
LTYPE
  5
95
330
5
100
AcDbSymbolTableRecord
100
AcDbLinetypeTableRecord
  2
DIVIDE_G
 70
     0
  3
Graphite's line style                   
 72
    65
 73
     6
 40
0.7799999937415123
 49
0.5
 74
     0
 49
-0.0724999979138374
 74
     0
 49
0.03125
 74
     0
 49
-0.0724999979138374
 74
     0
 49
0.03125
 74
     0
 49
-0.0724999979138374
 74
     0
  0
LTYPE
  5
96
330
5
100
AcDbSymbolTableRecord
100
AcDbLinetypeTableRecord
  2
BORDER_G
 70
     0
  3
Graphite's line style                   
 72
    65
 73
     6
 40
1.248749993741512
 49
0.5
 74
     0
 49
-0.0724999979138374
 74
     0
 49
0.5
 74
     0
 49
-0.0724999979138374
 74
     0
 49
0.03125
 74
     0
 49
-0.0724999979138374
 74
     0
  0
LTYPE
  5
97
330
5
100
AcDbSymbolTableRecord
100
AcDbLinetypeTableRecord
  2
DASHDOT_G
 70
     0
  3
Graphite's line style                   
 72
    65
 73
     4
 40
0.6762499958276749
 49
0.5
 74
     0
 49
-0.0724999979138374
 74
     0
 49
0.03125
 74
     0
 49
-0.0724999979138374
 74
     0
  0
LTYPE
  5
98
330
5
100
AcDbSymbolTableRecord
100
AcDbLinetypeTableRecord
  2
PHANTOM_G
 70
     0
  3
Graphite's line style                   
 72
    65
 73
     6
 40
0.9674999937415123
 49
0.5
 74
     0
 49
-0.0724999979138374
 74
     0
 49
0.125
 74
     0
 49
-0.0724999979138374
 74
     0
 49
0.125
 74
     0
 49
-0.0724999979138374
 74
     0
  0
LTYPE
  5
99
330
5
100
AcDbSymbolTableRecord
100
AcDbLinetypeTableRecord
  2
HIDDEN_G
 70
     0
  3
Graphite's line style                   
 72
    65
 73
     2
 40
0.1974999979138374
 49
0.125
 74
     0
 49
-0.0724999979138374
 74
     0
  0
LTYPE
  5
9A
330
5
100
AcDbSymbolTableRecord
100
AcDbLinetypeTableRecord
  2
DASHED_G
 70
     0
  3
Graphite's line style                   
 72
    65
 73
     2
 40
0.375
 49
0.25
 74
     0
 49
-0.125
 74
     0
  0
LTYPE
  5
9B
330
5
100
AcDbSymbolTableRecord
100
AcDbLinetypeTableRecord
  2
CENTER_G
 70
     0
  3
Graphite's line style                   
 72
    65
 73
     4
 40
0.7699999958276749
 49
0.5
 74
     0
 49
-0.0724999979138374
 74
     0
 49
0.125
 74
     0
 49
-0.0724999979138374
 74
     0
  0
LTYPE
  5
9C
330
5
100
AcDbSymbolTableRecord
100
AcDbLinetypeTableRecord
  2
DOTTED_G
 70
     0
  3

 72
    65
 73
     2
 40
0.1001
 49
0.0001
 74
     0
 49
-0.1
 74
     2
 75
     0
340
0
 46
0.0
 50
0.0
 44
0.0
 45
0.0
  9
.
  0
ENDTAB
  0
TABLE
  2
LAYER
  5
2
330
0
100
AcDbSymbolTable
 70
     5
  0
LAYER
  5
10
330
2
100
AcDbSymbolTableRecord
100
AcDbLayerTableRecord
  2
0
 70
     0
 62
     7
  6
CONTINUOUS
  0
LAYER
  5
9D
330
2
100
AcDbSymbolTableRecord
100
AcDbLayerTableRecord
  2
LAYER1
 70
     0
 62
     7
  6
CONTINUOUS
  0
LAYER
  5
9E
330
2
100
AcDbSymbolTableRecord
100
AcDbLayerTableRecord
  2
CONSTRUCTION
 70
     0
 62
     7
  6
CONTINUOUS
  0
LAYER
  5
9F
330
2
100
AcDbSymbolTableRecord
100
AcDbLayerTableRecord
  2
DIMENSION
 70
     0
 62
     7
  6
CONTINUOUS
  0
LAYER
  5
A0
330
2
100
AcDbSymbolTableRecord
100
AcDbLayerTableRecord
  2
CONSTRAINTS
 70
     0
 62
     7
  6
CONTINUOUS
  0
ENDTAB
  0
TABLE
  2
STYLE
  5
3
330
0
100
AcDbSymbolTable
 70
     4
  0
STYLE
  5
11
330
3
100
AcDbSymbolTableRecord
100
AcDbTextStyleTableRecord
  2
STANDARD
 70
     0
 40
0.0
 41
1.0
 50
0.0
 71
     0
 42
0.2
  3
txt
  4

  0
STYLE
  5
6E
330
3
100
AcDbSymbolTableRecord
100
AcDbTextStyleTableRecord
  2
ODASHXSTYLE
 70
     0
 40
0.0
 41
1.0
 50
0.0
 71
     0
 42
0.2
  3
txt
  4

  0
STYLE
  5
6F
330
3
100
AcDbSymbolTableRecord
100
AcDbTextStyleTableRecord
  2
ODATTFSTYLE
 70
     0
 40
0.0
 41
1.0
 50
0.0
 71
     0
 42
0.2
  3
VERDANA.TTF
  4

1001
ACAD
1000
Verdana
1071
       34
  0
STYLE
  5
70
330
3
100
AcDbSymbolTableRecord
100
AcDbTextStyleTableRecord
  2

 70
     1
 40
0.0
 41
1.0
 50
0.0
 71
     0
 42
0.2
  3
ltypeshp.shx
  4

  0
ENDTAB
  0
TABLE
  2
VIEW
  5
6
330
0
100
AcDbSymbolTable
 70
     0
  0
ENDTAB
  0
TABLE
  2
UCS
  5
7
330
0
100
AcDbSymbolTable
 70
     0
  0
ENDTAB
  0
TABLE
  2
APPID
  5
9
330
0
100
AcDbSymbolTable
 70
     2
  0
APPID
  5
12
330
9
100
AcDbSymbolTableRecord
100
AcDbRegAppTableRecord
  2
ACAD
 70
     0
  0
APPID
  5
169
330
9
100
AcDbSymbolTableRecord
100
AcDbRegAppTableRecord
  2
ACAD_MLEADERVER
 70
     0
  0
ENDTAB
  0
TABLE
  2
DIMSTYLE
  5
A
330
0
100
AcDbSymbolTable
 70
     9
  0
DIMSTYLE
105
27
330
A
100
AcDbSymbolTableRecord
100
AcDbDimStyleTableRecord
  2
STANDARD
 70
     0
  3

  4

  5

  6

  7

 40
1.0
 41
0.18
 42
0.0625
 43
0.38
 44
0.18
 45
0.0
 46
0.0
 47
0.0
 48
0.0
140
0.18
141
0.09
142
0.0
143
25.4
144
1.0
145
0.0
146
1.0
147
0.09
 71
     0
 72
     0
 73
     1
 74
     1
 75
     0
 76
     0
 77
     0
 78
     0
170
     0
171
     2
172
     0
173
     0
174
     0
175
     0
176
     0
177
     0
178
     0
270
     2
271
     4
272
     4
273
     2
274
     2
340
11
275
     0
280
     0
281
     0
282
     0
283
     1
284
     0
285
     0
286
     0
287
     3
288
     0
  0
DIMSTYLE
105
71
330
A
100
AcDbSymbolTableRecord
100
AcDbDimStyleTableRecord
  2
ODADIMSTYLE0
 70
     0
  3

  4

  5

  6

  7

 40
1.0
 41
0.18
 42
0.0625
 43
0.38
 44
0.18
 45
0.0
 46
0.0
 47
0.0
 48
0.0
140
0.18
141
0.09
142
0.0
143
25.4
144
1.0
145
0.0
146
1.0
147
0.09
 71
     0
 72
     0
 73
     1
 74
     1
 75
     0
 76
     0
 77
     0
 78
     0
170
     0
171
     2
172
     0
173
     0
174
     0
175
     0
176
     0
177
     0
178
     0
270
     2
271
     4
272
     4
273
     2
274
     2
340
11
275
     0
280
     0
281
     0
282
     0
283
     1
284
     0
285
     0
286
     0
287
     3
288
     0
  0
DIMSTYLE
105
72
330
A
100
AcDbSymbolTableRecord
100
AcDbDimStyleTableRecord
  2
ODADIMSTYLE1
 70
     0
  3

  4

  5

  6

  7

 40
1.0
 41
0.18
 42
0.0625
 43
0.38
 44
0.18
 45
0.0
 46
0.0
 47
0.0
 48
0.0
140
0.18
141
0.09
142
0.0
143
25.4
144
1.0
145
0.0
146
1.0
147
0.09
 71
     0
 72
     0
 73
     1
 74
     1
 75
     0
 76
     0
 77
     0
 78
     0
170
     0
171
     2
172
     0
173
     0
174
     0
175
     0
176
     0
177
     0
178
     0
270
     2
271
     4
272
     4
273
     2
274
     2
340
11
275
     0
280
     0
281
     0
282
     0
283
     1
284
     0
285
     0
286
     0
287
     3
288
     0
  0
DIMSTYLE
105
73
330
A
100
AcDbSymbolTableRecord
100
AcDbDimStyleTableRecord
  2
ODADIMSTYLE2
 70
     0
  3

  4

  5
CLOSEDBLANK
  6

  7

 40
1.0
 41
0.18
 42
0.0625
 43
0.38
 44
0.18
 45
0.0
 46
0.0
 47
0.0
 48
0.0
140
0.18
141
0.09
142
0.0
143
25.4
144
1.0
145
0.0
146
1.0
147
0.09
 71
     0
 72
     0
 73
     1
 74
     1
 75
     0
 76
     0
 77
     0
 78
     0
170
     0
171
     2
172
     0
173
     0
174
     0
175
     0
176
     0
177
     0
178
     0
270
     2
271
     4
272
     4
273
     2
274
     2
340
11
275
     0
280
     0
281
     0
282
     0
283
     1
284
     0
285
     0
286
     0
287
     3
288
     0
  0
DIMSTYLE
105
7A
330
A
100
AcDbSymbolTableRecord
100
AcDbDimStyleTableRecord
  2
ODADIMSTYLE3
 70
     0
  3

  4

  5
NONE
  6

  7

 40
1.0
 41
0.18
 42
0.0625
 43
0.38
 44
0.18
 45
0.0
 46
0.0
 47
0.0
 48
0.0
140
0.18
141
0.09
142
0.0
143
25.4
144
1.0
145
0.0
146
1.0
147
0.09
 71
     0
 72
     0
 73
     1
 74
     1
 75
     0
 76
     0
 77
     0
 78
     0
170
     0
171
     2
172
     0
173
     0
174
     0
175
     0
176
     0
177
     0
178
     0
270
     2
271
     4
272
     4
273
     2
274
     2
340
11
275
     0
280
     0
281
     0
282
     0
283
     1
284
     0
285
     0
286
     0
287
     3
288
     0
  0
DIMSTYLE
105
7E
330
A
100
AcDbSymbolTableRecord
100
AcDbDimStyleTableRecord
  2
ODADIMSTYLE4
 70
     0
  3

  4

  5
OBLIQUE
  6

  7

 40
1.0
 41
0.18
 42
0.0625
 43
0.38
 44
0.18
 45
0.0
 46
0.0
 47
0.0
 48
0.0
140
0.18
141
0.09
142
0.0
143
25.4
144
1.0
145
0.0
146
1.0
147
0.09
 71
     0
 72
     0
 73
     1
 74
     1
 75
     0
 76
     0
 77
     0
 78
     0
170
     0
171
     2
172
     0
173
     0
174
     0
175
     0
176
     0
177
     0
178
     0
270
     2
271
     4
272
     4
273
     2
274
     2
340
11
275
     0
280
     0
281
     0
282
     0
283
     1
284
     0
285
     0
286
     0
287
     3
288
     0
  0
DIMSTYLE
105
83
330
A
100
AcDbSymbolTableRecord
100
AcDbDimStyleTableRecord
  2
ODADIMSTYLE5
 70
     0
  3

  4

  5

  6

  7

 40
1.0
 41
0.18
 42
0.0625
 43
0.38
 44
0.18
 45
0.0
 46
0.0
 47
0.0
 48
0.0
140
0.18
141
0.09
142
0.0
143
25.4
144
1.0
145
0.0
146
1.0
147
0.09
 71
     0
 72
     0
 73
     1
 74
     1
 75
     0
 76
     0
 77
     0
 78
     0
170
     0
171
     2
172
     0
173
     0
174
     0
175
     0
176
     0
177
     0
178
     0
270
     2
271
     4
272
     4
273
     2
274
     2
340
11
275
     0
280
     0
281
     0
282
     0
283
     1
284
     0
285
     0
286
     0
287
     3
288
     0
  0
DIMSTYLE
105
84
330
A
100
AcDbSymbolTableRecord
100
AcDbDimStyleTableRecord
  2
ODADIMSTYLE6
 70
     0
  3

  4

  5
DOT
  6

  7

 40
1.0
 41
0.18
 42
0.0625
 43
0.38
 44
0.18
 45
0.0
 46
0.0
 47
0.0
 48
0.0
140
0.18
141
0.09
142
0.0
143
25.4
144
1.0
145
0.0
146
1.0
147
0.09
 71
     0
 72
     0
 73
     1
 74
     1
 75
     0
 76
     0
 77
     0
 78
     0
170
     0
171
     2
172
     0
173
     0
174
     0
175
     0
176
     0
177
     0
178
     0
270
     2
271
     4
272
     4
273
     2
274
     2
340
11
275
     0
280
     0
281
     0
282
     0
283
     1
284
     0
285
     0
286
     0
287
     3
288
     0
  0
DIMSTYLE
105
8D
330
A
100
AcDbSymbolTableRecord
100
AcDbDimStyleTableRecord
  2
ODADIMSTYLE7
 70
     0
  3

  4

  5
DOTBLANK
  6

  7

 40
1.0
 41
0.18
 42
0.0625
 43
0.38
 44
0.18
 45
0.0
 46
0.0
 47
0.0
 48
0.0
140
0.18
141
0.09
142
0.0
143
25.4
144
1.0
145
0.0
146
1.0
147
0.09
 71
     0
 72
     0
 73
     1
 74
     1
 75
     0
 76
     0
 77
     0
 78
     0
170
     0
171
     2
172
     0
173
     0
174
     0
175
     0
176
     0
177
     0
178
     0
270
     2
271
     4
272
     4
273
     2
274
     2
340
11
275
     0
280
     0
281
     0
282
     0
283
     1
284
     0
285
     0
286
     0
287
     3
288
     0
  0
ENDTAB
  0
TABLE
  2
BLOCK_RECORD
  5
1
330
0
100
AcDbSymbolTable
 70
     6
  0
BLOCK_RECORD
  5
1F
330
1
100
AcDbSymbolTableRecord
100
AcDbBlockTableRecord
  2
*MODEL_SPACE
  0
BLOCK_RECORD
  5
1B
330
1
100
AcDbSymbolTableRecord
100
AcDbBlockTableRecord
  2
*PAPER_SPACE
  0
BLOCK_RECORD
  5
74
330
1
100
AcDbSymbolTableRecord
100
AcDbBlockTableRecord
  2
_CLOSEDBLANK
  0
BLOCK_RECORD
  5
7B
330
1
100
AcDbSymbolTableRecord
100
AcDbBlockTableRecord
  2
_NONE
  0
BLOCK_RECORD
  5
7F
330
1
100
AcDbSymbolTableRecord
100
AcDbBlockTableRecord
  2
_OBLIQUE
  0
BLOCK_RECORD
  5
85
330
1
100
AcDbSymbolTableRecord
100
AcDbBlockTableRecord
  2
_DOT
  0
BLOCK_RECORD
  5
8E
330
1
100
AcDbSymbolTableRecord
100
AcDbBlockTableRecord
  2
_DOTBLANK
  0
ENDTAB
  0
ENDSEC
  0
SECTION
  2
BLOCKS
  0
BLOCK
  5
20
330
1F
100
AcDbEntity
  8
0
100
AcDbBlockBegin
  2
*MODEL_SPACE
 70
     0
 10
0.0
 20
0.0
 30
0.0
  3
*MODEL_SPACE
  1

  0
ENDBLK
  5
21
330
1F
100
AcDbEntity
  8
0
100
AcDbBlockEnd
  0
BLOCK
  5
1C
330
1B
100
AcDbEntity
 67
     1
  8
0
100
AcDbBlockBegin
  2
*PAPER_SPACE
 70
     0
 10
0.0
 20
0.0
 30
0.0
  3
*PAPER_SPACE
  1

  0
ENDBLK
  5
1D
330
1B
100
AcDbEntity
 67
     1
  8
0
100
AcDbBlockEnd
  0
BLOCK
  5
75
330
74
100
AcDbEntity
  8
0
100
AcDbBlockBegin
  2
_CLOSEDBLANK
 70
     0
 10
0.0
 20
0.0
 30
0.0
  3
_CLOSEDBLANK
  1

  0
LINE
  5
77
330
74
100
AcDbEntity
  8
0
  6
BYBLOCK
 62
     0
100
AcDbLine
 10
-1.0
 20
0.166667
 30
0.0
 11
0.0
 21
0.0
 31
0.0
  0
LINE
  5
78
330
74
100
AcDbEntity
  8
0
  6
BYBLOCK
 62
     0
100
AcDbLine
 10
0.0
 20
0.0
 30
0.0
 11
-1.0
 21
-0.166667
 31
0.0
  0
LINE
  5
79
330
74
100
AcDbEntity
  8
0
  6
BYBLOCK
 62
     0
100
AcDbLine
 10
-1.0
 20
0.166667
 30
0.0
 11
-1.0
 21
-0.166667
 31
0.0
  0
ENDBLK
  5
76
330
74
100
AcDbEntity
  8
0
100
AcDbBlockEnd
  0
BLOCK
  5
7C
330
7B
100
AcDbEntity
  8
0
100
AcDbBlockBegin
  2
_NONE
 70
     0
 10
0.0
 20
0.0
 30
0.0
  3
_NONE
  1

  0
ENDBLK
  5
7D
330
7B
100
AcDbEntity
  8
0
100
AcDbBlockEnd
  0
BLOCK
  5
80
330
7F
100
AcDbEntity
  8
0
100
AcDbBlockBegin
  2
_OBLIQUE
 70
     0
 10
0.0
 20
0.0
 30
0.0
  3
_OBLIQUE
  1

  0
LINE
  5
82
330
7F
100
AcDbEntity
  8
0
  6
BYBLOCK
 62
     0
100
AcDbLine
 10
-0.5
 20
-0.5
 30
0.0
 11
0.5
 21
0.5
 31
0.0
  0
ENDBLK
  5
81
330
7F
100
AcDbEntity
  8
0
100
AcDbBlockEnd
  0
BLOCK
  5
86
330
85
100
AcDbEntity
  8
0
100
AcDbBlockBegin
  2
_DOT
 70
     0
 10
0.0
 20
0.0
 30
0.0
  3
_DOT
  1

  0
POLYLINE
  5
88
330
85
100
AcDbEntity
  8
0
  6
BYBLOCK
 62
     0
100
AcDb2dPolyline
 66
     1
 10
0.0
 20
0.0
 30
0.0
 70
     1
 40
0.5
 41
0.5
  0
VERTEX
  5
8A
330
88
100
AcDbEntity
  8
0
  6
BYBLOCK
 62
     0
100
AcDbVertex
100
AcDb2dVertex
 10
-0.25
 20
0.0
 30
0.0
 42
1.0
  0
VERTEX
  5
8B
330
88
100
AcDbEntity
  8
0
  6
BYBLOCK
 62
     0
100
AcDbVertex
100
AcDb2dVertex
 10
0.25
 20
0.0
 30
0.0
 42
1.0
  0
SEQEND
  5
8C
330
88
100
AcDbEntity
  8
0
  6
BYBLOCK
 62
     0
  0
LINE
  5
89
330
85
100
AcDbEntity
  8
0
  6
BYBLOCK
 62
     0
100
AcDbLine
 10
-0.5
 20
0.0
 30
0.0
 11
-1.0
 21
0.0
 31
0.0
  0
ENDBLK
  5
87
330
85
100
AcDbEntity
  8
0
100
AcDbBlockEnd
  0
BLOCK
  5
8F
330
8E
100
AcDbEntity
  8
0
100
AcDbBlockBegin
  2
_DOTBLANK
 70
     0
 10
0.0
 20
0.0
 30
0.0
  3
_DOTBLANK
  1

  0
CIRCLE
  5
91
330
8E
100
AcDbEntity
  8
0
  6
BYBLOCK
 62
     0
100
AcDbCircle
 10
0.0
 20
0.0
 30
0.0
 40
0.5
  0
LINE
  5
92
330
8E
100
AcDbEntity
  8
0
  6
BYBLOCK
 62
     0
100
AcDbLine
 10
-0.5
 20
0.0
 30
0.0
 11
-1.0
 21
0.0
 31
0.0
  0
ENDBLK
  5
90
330
8E
100
AcDbEntity
  8
0
100
AcDbBlockEnd
  0
ENDSEC
  0
SECTION
  2
ENTITIES
  0
LINE
  5
A1
330
1F
100
AcDbEntity
  8
LAYER1
 62
     7
100
AcDbLine
 10
-74.52661548100002
 20
44.48352840133332
 30
0.0
 11
-74.96660342500002
 21
44.48352840133332
 31
0.0
  0
LINE
  5
A2
330
1F
100
AcDbEntity
  8
LAYER1
 62
     7
100
AcDbLine
 10
-74.49961622080002
 20
44.51052766153332
 30
0.0
 11
-74.28162219400002
 21
44.51052766153332
 31
0.0
  0
LINE
  5
A3
330
1F
100
AcDbEntity
  8
LAYER1
 62
     7
100
AcDbLine
 10
-75.44159041000003
 20
44.54002685323331
 30
0.0
 11
-75.46658972500003
 21
44.54002685323331
 31
0.0
  0
LINE
  5
A4
330
1F
100
AcDbEntity
  8
LAYER1
 62
     7
100
AcDbLine
 10
-75.17464360941679
 20
44.54852662033332
 30
0.0
 11
-75.31659383500002
 21
44.54852662033332
 31
0.0
  0
LINE
  5
A5
330
1F
100
AcDbEntity
  8
LAYER1
 62
     7
100
AcDbLine
 10
-75.25656862178711
 20
44.57352593533332
 30
0.0
 11
-75.34159315000002
 21
44.57352593533332
 31
0.0
  0
LINE
  5
A6
330
1F
100
AcDbEntity
  8
LAYER1
 62
     7
100
AcDbLine
 10
-75.44159041000003
 20
44.59852525040418
 30
0.0
 11
-75.49158904000002
 21
44.59852525040418
 31
0.0
  0
LINE
  5
A7
330
1F
100
AcDbEntity
  8
LAYER1
 62
     7
100
AcDbLine
 10
-75.25437955150944
 20
44.60052519553332
 30
0.0
 11
-75.30159424600002
 21
44.60052519553332
 31
0.0
  0
LINE
  5
A8
330
1F
100
AcDbEntity
  8
LAYER1
 62
     7
100
AcDbLine
 10
-74.93660424700002
 20
44.60852497633331
 30
0.0
 11
-74.81839724457875
 21
44.60852497633331
 31
0.0
  0
LINE
  5
A9
330
1F
100
AcDbEntity
  8
LAYER1
 62
     7
100
AcDbLine
 10
-74.95260380860003
 20
44.60852497633331
 30
0.0
 11
-75.03660150700003
 21
44.60852497633331
 31
0.0
  0
LINE
  5
AA
330
1F
100
AcDbEntity
  8
LAYER1
 62
     7
100
AcDbLine
 10
-75.15159835600002
 20
44.60852497633331
 30
0.0
 11
-75.34159315000002
 21
44.60852497633331
 31
0.0
  0
LINE
  5
AB
330
1F
100
AcDbEntity
  8
LAYER1
 62
     7
100
AcDbLine
 10
-74.25662287900002
 20
44.62352456533333
 30
0.0
 11
-74.81839725042897
 21
44.62352456533333
 31
0.0
  0
LINE
  5
AC
330
1F
100
AcDbEntity
  8
LAYER1
 62
     7
100
AcDbLine
 10
-74.81839725042897
 20
44.60852497633331
 30
0.0
 11
-74.81839725042897
 21
44.66352346933331
 31
0.0
  0
LINE
  5
AD
330
1F
100
AcDbEntity
  8
LAYER1
 62
     7
100
AcDbLine
 10
-74.81839725042897
 20
44.86351798933332
 30
0.0
 11
-74.81839725042897
 21
44.91851648233332
 31
0.0
  0
LINE
  5
AE
330
1F
100
AcDbEntity
  8
LAYER1
 62
     7
100
AcDbLine
 10
-74.82239714082898
 20
44.66352346933331
 30
0.0
 11
-74.82239714082898
 21
44.60852497633331
 31
0.0
  0
LINE
  5
AF
330
1F
100
AcDbEntity
  8
LAYER1
 62
     7
100
AcDbLine
 10
-74.82239714082898
 20
44.86351798933332
 30
0.0
 11
-74.82239714082898
 21
44.91851648233332
 31
0.0
  0
LINE
  5
B0
330
1F
100
AcDbEntity
  8
LAYER1
 62
     7
100
AcDbLine
 10
-74.88660561700001
 20
44.60852497633331
 30
0.0
 11
-74.88660561700001
 21
44.67152325013332
 31
0.0
  0
LINE
  5
B1
330
1F
100
AcDbEntity
  8
LAYER1
 62
     7
100
AcDbLine
 10
-74.88660561700001
 20
44.85551820853333
 30
0.0
 11
-74.88660561700001
 21
44.91851648233332
 31
0.0
  0
LINE
  5
B2
330
1F
100
AcDbEntity
  8
LAYER1
 62
     7
100
AcDbLine
 10
-75.06660068500003
 20
44.83851867433332
 30
0.0
 11
-75.26659520500002
 21
44.83851867433332
 31
0.0
  0
LINE
  5
B3
330
1F
100
AcDbEntity
  8
LAYER1
 62
     7
100
AcDbLine
 10
-74.88660561700001
 20
44.85551820853333
 30
0.0
 11
-74.52661548100002
 21
44.85551820853333
 31
0.0
  0
LINE
  5
B4
330
1F
100
AcDbEntity
  8
LAYER1
 62
     7
100
AcDbLine
 10
-75.24159589000003
 20
44.86351798933332
 30
0.0
 11
-74.93660424700002
 21
44.86351798933332
 31
0.0
  0
LINE
  5
B5
330
1F
100
AcDbEntity
  8
LAYER1
 62
     7
100
AcDbLine
 10
-74.63161260400003
 20
44.86351798933332
 30
0.0
 11
-74.63161260400003
 21
44.78689798525358
 31
0.0
  0
LINE
  5
B6
330
1F
100
AcDbEntity
  8
LAYER1
 62
     7
100
AcDbLine
 10
-74.63161260400003
 20
44.74390856726416
 30
0.0
 11
-74.63161260400003
 21
44.66352346933331
 31
0.0
  0
LINE
  5
B7
330
1F
100
AcDbEntity
  8
LAYER1
 62
     7
100
AcDbLine
 10
-74.63161260400003
 20
44.86351798933332
 30
0.0
 11
-74.63161260400003
 21
44.78689798525358
 31
0.0
  0
LINE
  5
B8
330
1F
100
AcDbEntity
  8
LAYER1
 62
     7
100
AcDbLine
 10
-74.63161260400003
 20
44.86351798933332
 30
0.0
 11
-74.63161260400003
 21
44.78689798525358
 31
0.0
  0
MTEXT
  5
B9
330
1F
100
AcDbEntity
  8
LAYER1
 62
     7
100
AcDbMText
 10
-75.05338272801684
 20
44.7851000481136
 30
0.0
 40
0.0399999991059303
 41
1.190591257895935
 71
     1
 72
     1
  1
{\C7;\l\FPlotter|b0|i0|c00|p34;DTM06-6S-E005\P}
  0
LINE
  5
BA
330
1F
100
AcDbEntity
  8
LAYER1
 62
     7
100
AcDbLine
 10
-74.93660424700002
 20
44.86351798933332
 30
0.0
 11
-74.93660424700002
 21
44.91851648233332
 31
0.0
  0
LINE
  5
BB
330
1F
100
AcDbEntity
  8
LAYER1
 62
     7
100
AcDbLine
 10
-74.95260380860003
 20
44.91851648233332
 30
0.0
 11
-74.95260380860003
 21
44.88851730433332
 31
0.0
  0
LINE
  5
BC
330
1F
100
AcDbEntity
  8
LAYER1
 62
     7
100
AcDbLine
 10
-74.95260380860003
 20
44.60852497633331
 30
0.0
 11
-74.95260380860003
 21
44.63852415433333
 31
0.0
  0
LINE
  5
BD
330
1F
100
AcDbEntity
  8
LAYER1
 62
     7
100
AcDbLine
 10
-74.96660342500002
 20
45.04351305733331
 30
0.0
 11
-74.96660342500002
 21
44.91851648233332
 31
0.0
  0
LINE
  5
BE
330
1F
100
AcDbEntity
  8
LAYER1
 62
     7
100
AcDbLine
 10
-74.96660342500002
 20
44.60852497633331
 30
0.0
 11
-74.96660342500002
 21
44.48352840133332
 31
0.0
  0
LINE
  5
BF
330
1F
100
AcDbEntity
  8
LAYER1
 62
     7
100
AcDbLine
 10
-74.25662287900002
 20
45.00208043588991
 30
0.0
 11
-74.25662287900002
 21
44.52496102277674
 31
0.0
  0
LINE
  5
C0
330
1F
100
AcDbEntity
  8
LAYER1
 62
     7
100
AcDbLine
 10
-74.28162219400002
 20
45.01651379713331
 30
0.0
 11
-74.28162219400002
 21
44.51052766153332
 31
0.0
  0
LINE
  5
C1
330
1F
100
AcDbEntity
  8
LAYER1
 62
     7
100
AcDbLine
 10
-74.25662287900002
 20
44.52496102277674
 30
0.0
 11
-74.28162219400002
 21
44.51052766153332
 31
0.0
  0
LINE
  5
C2
330
1F
100
AcDbEntity
  8
LAYER1
 62
     7
100
AcDbLine
 10
-74.49961622080002
 20
44.51052766153332
 30
0.0
 11
-74.52661548100002
 21
44.48352840133332
 31
0.0
  0
LINE
  5
C3
330
1F
100
AcDbEntity
  8
LAYER1
 62
     7
100
AcDbLine
 10
-74.49961622080002
 20
44.51052766153332
 30
0.0
 11
-74.49961622080002
 21
45.01651379713331
 31
0.0
  0
LINE
  5
C4
330
1F
100
AcDbEntity
  8
LAYER1
 62
     7
100
AcDbLine
 10
-75.24159589000003
 20
44.41653023713332
 30
0.0
 11
-75.46658972500003
 21
44.41653023713332
 31
0.0
  0
LINE
  5
C5
330
1F
100
AcDbEntity
  8
LAYER1
 62
     7
100
AcDbLine
 10
-75.46658972500003
 20
44.43152982613331
 30
0.0
 11
-75.30159424600002
 21
44.43152982613331
 31
0.0
  0
LINE
  5
C6
330
1F
100
AcDbEntity
  8
LAYER1
 62
     7
100
AcDbLine
 10
-74.93660424700002
 20
44.91851648233332
 30
0.0
 11
-74.81839724457875
 21
44.91851648233332
 31
0.0
  0
LINE
  5
C7
330
1F
100
AcDbEntity
  8
LAYER1
 62
     7
100
AcDbLine
 10
-74.95260380860003
 20
44.91851648233332
 30
0.0
 11
-75.03660150700003
 21
44.91851648233332
 31
0.0
  0
LINE
  5
C8
330
1F
100
AcDbEntity
  8
LAYER1
 62
     7
100
AcDbLine
 10
-75.15159835600002
 20
44.91851648233332
 30
0.0
 11
-75.34159315000002
 21
44.91851648233332
 31
0.0
  0
LINE
  5
C9
330
1F
100
AcDbEntity
  8
LAYER1
 62
     7
100
AcDbLine
 10
-75.30159424600002
 20
44.92651626313332
 30
0.0
 11
-75.25437955173777
 21
44.92651626313332
 31
0.0
  0
LINE
  5
CA
330
1F
100
AcDbEntity
  8
LAYER1
 62
     7
100
AcDbLine
 10
-75.44159041000003
 20
44.92851620826245
 30
0.0
 11
-75.49158904000002
 21
44.92851620826245
 31
0.0
  0
LINE
  5
CB
330
1F
100
AcDbEntity
  8
LAYER1
 62
     7
100
AcDbLine
 10
-75.34159315000002
 20
44.95351552333332
 30
0.0
 11
-75.2565686215942
 21
44.95351552333332
 31
0.0
  0
LINE
  5
CC
330
1F
100
AcDbEntity
  8
LAYER1
 62
     7
100
AcDbLine
 10
-75.03660150700003
 20
44.91851648233332
 30
0.0
 11
-75.03660150700003
 21
44.88851730433332
 31
0.0
  0
LINE
  5
CD
330
1F
100
AcDbEntity
  8
LAYER1
 62
     7
100
AcDbLine
 10
-75.03660150700003
 20
44.60852497633331
 30
0.0
 11
-75.03660150700003
 21
44.63852415433333
 31
0.0
  0
LINE
  5
CE
330
1F
100
AcDbEntity
  8
LAYER1
 62
     7
100
AcDbLine
 10
-75.06660068500003
 20
44.83851867433332
 30
0.0
 11
-75.06660068500003
 21
44.68852278433332
 31
0.0
  0
LINE
  5
CF
330
1F
100
AcDbEntity
  8
LAYER1
 62
     7
100
AcDbLine
 10
-74.52661548100002
 20
44.48352840133332
 30
0.0
 11
-74.52661548100002
 21
45.04351305733331
 31
0.0
  0
LINE
  5
D0
330
1F
100
AcDbEntity
  8
LAYER1
 62
     7
100
AcDbLine
 10
-75.44159041000003
 20
44.44616159207021
 30
0.0
 11
-75.49158904000002
 21
44.44616159207021
 31
0.0
  0
LINE
  5
D1
330
1F
100
AcDbEntity
  8
LAYER1
 62
     7
100
AcDbLine
 10
-75.44159041000003
 20
44.46110791000626
 30
0.0
 11
-75.46658972500003
 21
44.46110791000626
 31
0.0
  0
LINE
  5
D2
330
1F
100
AcDbEntity
  8
LAYER1
 62
     7
100
AcDbLine
 10
-75.44159041000003
 20
44.46352894933332
 30
0.0
 11
-74.98660287700002
 21
44.46352894933332
 31
0.0
  0
LINE
  5
D3
330
1F
100
AcDbEntity
  8
LAYER1
 62
     7
100
AcDbLine
 10
-75.09160000000003
 20
44.66352346933331
 30
0.0
 11
-75.09160000000003
 21
44.86351798933332
 31
0.0
  0
LINE
  5
D4
330
1F
100
AcDbEntity
  8
LAYER1
 62
     7
100
AcDbLine
 10
-74.49961622080002
 20
45.01651379713331
 30
0.0
 11
-74.28162219400002
 21
45.01651379713331
 31
0.0
  0
LINE
  5
D5
330
1F
100
AcDbEntity
  8
LAYER1
 62
     7
100
AcDbLine
 10
-74.96660342500002
 20
45.04351305733331
 30
0.0
 11
-74.52661548100002
 21
45.04351305733331
 31
0.0
  0
LINE
  5
D6
330
1F
100
AcDbEntity
  8
LAYER1
 62
     7
100
AcDbLine
 10
-75.15159835594883
 20
44.95775269427102
 30
0.0
 11
-75.15159835600002
 21
44.91851648233332
 31
0.0
  0
LINE
  5
D7
330
1F
100
AcDbEntity
  8
LAYER1
 62
     7
100
AcDbLine
 10
-75.15159835600002
 20
44.60852497633331
 30
0.0
 11
-75.15159835596066
 21
44.5692887641279
 31
0.0
  0
LINE
  5
D8
330
1F
100
AcDbEntity
  8
LAYER1
 62
     7
100
AcDbLine
 10
-74.93660424700002
 20
44.62352456533333
 30
0.0
 11
-74.95260380860003
 21
44.62352456533333
 31
0.0
  0
LINE
  5
D9
330
1F
100
AcDbEntity
  8
LAYER1
 62
     7
100
AcDbLine
 10
-75.36659246500002
 20
44.62352456540418
 30
0.0
 11
-75.46658972500003
 21
44.62352456540418
 31
0.0
  0
LINE
  5
DA
330
1F
100
AcDbEntity
  8
LAYER1
 62
     7
100
AcDbLine
 10
-75.03660150700003
 20
44.62352456533333
 30
0.0
 11
-75.46658972500003
 21
44.62352456540418
 31
0.0
  0
LINE
  5
DB
330
1F
100
AcDbEntity
  8
LAYER1
 62
     7
100
AcDbLine
 10
-74.95260380860003
 20
44.63852415433333
 30
0.0
 11
-75.34368021436802
 21
44.63852415433333
 31
0.0
  0
LINE
  5
DC
330
1F
100
AcDbEntity
  8
LAYER1
 62
     7
100
AcDbLine
 10
-75.34159315000002
 20
44.65352374340418
 30
0.0
 11
-75.49158904000002
 21
44.65352374340418
 31
0.0
  0
LINE
  5
DD
330
1F
100
AcDbEntity
  8
LAYER1
 62
     7
100
AcDbLine
 10
-74.53461526180003
 20
44.66352346933331
 30
0.0
 11
-74.87274959020493
 21
44.66352346933331
 31
0.0
  0
LINE
  5
DE
330
1F
100
AcDbEntity
  8
LAYER1
 62
     7
100
AcDbLine
 10
-74.93660424700002
 20
44.66352346933331
 30
0.0
 11
-75.24159589000003
 21
44.66352346933331
 31
0.0
  0
LINE
  5
DF
330
1F
100
AcDbEntity
  8
LAYER1
 62
     7
100
AcDbLine
 10
-74.52661548100002
 20
44.67152325013332
 30
0.0
 11
-74.88660561700001
 21
44.67152325013332
 31
0.0
  0
LINE
  5
E0
330
1F
100
AcDbEntity
  8
LAYER1
 62
     7
100
AcDbLine
 10
-75.06660068500003
 20
44.68852278433332
 30
0.0
 11
-75.26659520500002
 21
44.68852278433332
 31
0.0
  0
LINE
  5
E1
330
1F
100
AcDbEntity
  8
LAYER1
 62
     7
100
AcDbLine
 10
-75.25656852042769
 20
44.54852662033332
 30
0.0
 11
-75.25656852042769
 21
44.57352593533332
 31
0.0
  0
LINE
  5
E2
330
1F
100
AcDbEntity
  8
LAYER1
 62
     7
100
AcDbLine
 10
-75.26659520500002
 20
44.68852278433332
 30
0.0
 11
-75.26659520500002
 21
44.83851867433332
 31
0.0
  0
LINE
  5
E3
330
1F
100
AcDbEntity
  8
LAYER1
 62
     7
100
AcDbLine
 10
-75.30159424600002
 20
45.09551163253332
 30
0.0
 11
-75.30159424600002
 21
45.06351250933332
 31
0.0
  0
LINE
  5
E4
330
1F
100
AcDbEntity
  8
LAYER1
 62
     7
100
AcDbLine
 10
-75.30159424600002
 20
44.97851483833333
 30
0.0
 11
-75.30159424600002
 21
44.92651626313332
 31
0.0
  0
LINE
  5
E5
330
1F
100
AcDbEntity
  8
LAYER1
 62
     7
100
AcDbLine
 10
-75.30159424600002
 20
44.46352894933332
 30
0.0
 11
-75.30159424600002
 21
44.43152982613331
 31
0.0
  0
LINE
  5
E6
330
1F
100
AcDbEntity
  8
LAYER1
 62
     7
100
AcDbLine
 10
-75.30159424600002
 20
44.54852662033332
 30
0.0
 11
-75.30159424600002
 21
44.60052519553332
 31
0.0
  0
LINE
  5
E7
330
1F
100
AcDbEntity
  8
LAYER1
 62
     7
100
AcDbLine
 10
-74.49961622080002
 20
45.01651379713331
 30
0.0
 11
-74.52661548100002
 21
45.04351305733331
 31
0.0
  0
LINE
  5
E8
330
1F
100
AcDbEntity
  8
LAYER1
 62
     7
100
AcDbLine
 10
-75.34159315000002
 20
44.95351552333332
 30
0.0
 11
-75.34159315000002
 21
44.91851648233332
 31
0.0
  0
LINE
  5
E9
330
1F
100
AcDbEntity
  8
LAYER1
 62
     7
100
AcDbLine
 10
-75.34159315000002
 20
44.87851757826246
 30
0.0
 11
-75.34159315000002
 21
44.64852388040418
 31
0.0
  0
LINE
  5
EA
330
1F
100
AcDbEntity
  8
LAYER1
 62
     7
100
AcDbLine
 10
-74.87274959020493
 20
44.86351798933332
 30
0.0
 11
-74.53461526180003
 21
44.86351798933332
 31
0.0
  0
LINE
  5
EB
330
1F
100
AcDbEntity
  8
LAYER1
 62
     7
100
AcDbLine
 10
-74.93660424700002
 20
44.66352346933331
 30
0.0
 11
-74.93660424700002
 21
44.60852497633331
 31
0.0
  0
LINE
  5
EC
330
1F
100
AcDbEntity
  8
LAYER1
 62
     7
100
AcDbLine
 10
-75.44159041000003
 20
44.44616159207021
 30
0.0
 11
-75.44159041000003
 21
44.46110791000626
 31
0.0
  0
LINE
  5
ED
330
1F
100
AcDbEntity
  8
LAYER1
 62
     7
100
AcDbLine
 10
-75.44159041000003
 20
44.46110791000626
 30
0.0
 11
-75.44159041000003
 21
44.62301931381539
 31
0.0
  0
LINE
  5
EE
330
1F
100
AcDbEntity
  8
LAYER1
 62
     7
100
AcDbLine
 10
-75.44159041000003
 20
44.62301931381539
 30
0.0
 11
-75.44159041000003
 21
44.62352456540418
 31
0.0
  0
LINE
  5
EF
330
1F
100
AcDbEntity
  8
LAYER1
 62
     7
100
AcDbLine
 10
-75.44159041000003
 20
44.90351689326246
 30
0.0
 11
-75.44159041000003
 21
44.90402214485125
 31
0.0
  0
LINE
  5
F0
330
1F
100
AcDbEntity
  8
LAYER1
 62
     7
100
AcDbLine
 10
-75.34159315000002
 20
44.87351771526245
 30
0.0
 11
-75.49158904000002
 21
44.87351771526245
 31
0.0
  0
LINE
  5
F1
330
1F
100
AcDbEntity
  8
LAYER1
 62
     7
100
AcDbLine
 10
-74.95260380860003
 20
44.88851730433332
 30
0.0
 11
-75.34368021436802
 21
44.88851730433332
 31
0.0
  0
LINE
  5
F2
330
1F
100
AcDbEntity
  8
LAYER1
 62
     7
100
AcDbLine
 10
-74.25662287900002
 20
44.90351689333332
 30
0.0
 11
-74.81839725042897
 21
44.90351689333332
 31
0.0
  0
LINE
  5
F3
330
1F
100
AcDbEntity
  8
LAYER1
 62
     7
100
AcDbLine
 10
-74.93660424700002
 20
44.90351689333332
 30
0.0
 11
-74.95260380860003
 21
44.90351689333332
 31
0.0
  0
LINE
  5
F4
330
1F
100
AcDbEntity
  8
LAYER1
 62
     7
100
AcDbLine
 10
-75.03660150700003
 20
44.90351689333332
 30
0.0
 11
-75.46658972500003
 21
44.90351689326246
 31
0.0
  0
LINE
  5
F5
330
1F
100
AcDbEntity
  8
LAYER1
 62
     7
100
AcDbLine
 10
-74.98660287700002
 20
45.06351250933332
 30
0.0
 11
-74.98660287700002
 21
44.91851648233332
 31
0.0
  0
LINE
  5
F6
330
1F
100
AcDbEntity
  8
LAYER1
 62
     7
100
AcDbLine
 10
-74.98660287700002
 20
44.60852497633331
 30
0.0
 11
-74.98660287700002
 21
44.46352894933332
 31
0.0
  0
LINE
  5
F7
330
1F
100
AcDbEntity
  8
LAYER1
 62
     7
100
AcDbLine
 10
-75.00660232900003
 20
44.91851648233332
 30
0.0
 11
-75.00660232900003
 21
44.88851730433332
 31
0.0
  0
LINE
  5
F8
330
1F
100
AcDbEntity
  8
LAYER1
 62
     7
100
AcDbLine
 10
-75.00660232900003
 20
44.60852497633331
 30
0.0
 11
-75.00660232900003
 21
44.63852415433333
 31
0.0
  0
ARC
  5
F9
330
1F
100
AcDbEntity
  8
LAYER1
 62
     7
100
AcDbCircle
 10
-75.71778823335814
 20
44.62450948716855
 30
0.0
 40
0.4640289351485634
100
AcDbArc
 50
353.6920922483014
 51
357.0372293795999
  0
ARC
  5
FA
330
1F
100
AcDbEntity
  8
LAYER1
 62
     7
100
AcDbCircle
 10
-75.31659383500002
 20
44.57352593533332
 30
0.0
 40
0.0249993150000023
100
AcDbArc
 50
180.0
 51
270.0
  0
ARC
  5
FB
330
1F
100
AcDbEntity
  8
LAYER1
 62
     7
100
AcDbCircle
 10
-75.36659246500002
 20
44.64852388040418
 30
0.0
 40
0.0249993150000023
100
AcDbArc
 50
270.0
 51
0.0
  0
ARC
  5
FC
330
1F
100
AcDbEntity
  8
LAYER1
 62
     7
100
AcDbCircle
 10
-75.46658972500003
 20
44.64852388040418
 30
0.0
 40
0.0249993149999881
100
AcDbArc
 50
180.0
 51
270.0
  0
ARC
  5
FD
330
1F
100
AcDbEntity
  8
LAYER1
 62
     7
100
AcDbCircle
 10
-75.46658972500003
 20
44.44152955213332
 30
0.0
 40
0.0249993149999881
100
AcDbArc
 50
180.0
 51
270.0
  0
ARC
  5
FE
330
1F
100
AcDbEntity
  8
LAYER1
 62
     7
100
AcDbCircle
 10
-75.24159589000003
 20
44.68852278433332
 30
0.0
 40
0.0249993149999881
100
AcDbArc
 50
180.0
 51
270.0
  0
ARC
  5
FF
330
1F
100
AcDbEntity
  8
LAYER1
 62
     7
100
AcDbCircle
 10
-74.58922149167037
 20
54.30723780878468
 30
0.0
 40
9.756561837644394
100
AcDbArc
 50
266.0779163344999
 51
266.2826873056
  0
ARC
  5
100
330
1F
100
AcDbEntity
  8
LAYER1
 62
     7
100
AcDbCircle
 10
-75.09160000000003
 20
44.83851867433332
 30
0.0
 40
0.0249993150000023
100
AcDbArc
 50
0.0
 51
90.0
  0
ARC
  5
101
330
1F
100
AcDbEntity
  8
LAYER1
 62
     7
100
AcDbCircle
 10
-75.74632718258209
 20
44.6238551624007
 30
0.0
 40
0.5271862044463037
100
AcDbArc
 50
354.2680954378996
 51
358.3336460778999
  0
ARC
  5
102
330
1F
100
AcDbEntity
  8
LAYER1
 62
     7
100
AcDbCircle
 10
-74.98660287700002
 20
45.04351305733331
 30
0.0
 40
0.0199994520000075
100
AcDbArc
 50
0.0
 51
90.0
  0
LINE
  5
103
330
1F
100
AcDbEntity
  8
LAYER1
 62
     7
100
AcDbLine
 10
-75.31659383500002
 20
44.97851483833333
 30
0.0
 11
-75.17464360941679
 21
44.97851483833333
 31
0.0
  0
LINE
  5
104
330
1F
100
AcDbEntity
  8
LAYER1
 62
     7
100
AcDbLine
 10
-75.44159041000003
 20
44.98701460543332
 30
0.0
 11
-75.46658972500003
 21
44.98701460543332
 31
0.0
  0
ARC
  5
105
330
1F
100
AcDbEntity
  8
LAYER1
 62
     7
100
AcDbCircle
 10
-75.46658972500003
 20
44.87851757826246
 30
0.0
 40
0.0249993150000023
100
AcDbArc
 50
90.0
 51
180.0
  0
ARC
  5
106
330
1F
100
AcDbEntity
  8
LAYER1
 62
     7
100
AcDbCircle
 10
-75.36659246500002
 20
44.87851757826246
 30
0.0
 40
0.0249993150000023
100
AcDbArc
 50
0.0
 51
90.0
  0
ARC
  5
107
330
1F
100
AcDbEntity
  8
LAYER1
 62
     7
100
AcDbCircle
 10
-75.46658972500003
 20
45.08551190653333
 30
0.0
 40
0.0249993149999996
100
AcDbArc
 50
89.99953149105524
 51
180.0
  0
ARC
  5
108
330
1F
100
AcDbEntity
  8
LAYER1
 62
     7
100
AcDbCircle
 10
-75.24159589000003
 20
44.83851867433332
 30
0.0
 40
0.0249993150000023
100
AcDbArc
 50
90.0
 51
180.0
  0
LINE
  5
109
330
1F
100
AcDbEntity
  8
LAYER1
 62
     7
100
AcDbLine
 10
-75.44159041000003
 20
45.06351250933332
 30
0.0
 11
-74.98660287700002
 21
45.06351250933332
 31
0.0
  0
LINE
  5
10A
330
1F
100
AcDbEntity
  8
LAYER1
 62
     7
100
AcDbLine
 10
-75.44159041000003
 20
45.06593354866038
 30
0.0
 11
-75.46658972500003
 21
45.06593354866038
 31
0.0
  0
LINE
  5
10B
330
1F
100
AcDbEntity
  8
LAYER1
 62
     7
100
AcDbLine
 10
-75.44159041000003
 20
45.08087986659642
 30
0.0
 11
-75.49158904000002
 21
45.08087986659642
 31
0.0
  0
LINE
  5
10C
330
1F
100
AcDbEntity
  8
LAYER1
 62
     7
100
AcDbLine
 10
-75.30159424600002
 20
45.09551163253332
 30
0.0
 11
-75.46658972500003
 21
45.09551163253332
 31
0.0
  0
LINE
  5
10D
330
1F
100
AcDbEntity
  8
LAYER1
 62
     7
100
AcDbLine
 10
-75.24159589000003
 20
45.11051122153332
 30
0.0
 11
-75.46658952058043
 21
45.11051122153332
 31
0.0
  0
LINE
  5
10E
330
1F
100
AcDbEntity
  8
LAYER1
 62
     7
100
AcDbLine
 10
-75.24159589000003
 20
45.11051122153332
 30
0.0
 11
-75.24159589000003
 21
45.06351250933332
 31
0.0
  0
LINE
  5
10F
330
1F
100
AcDbEntity
  8
LAYER1
 62
     7
100
AcDbLine
 10
-75.24159589000003
 20
44.46352894933332
 30
0.0
 11
-75.24159589000003
 21
44.41653023713332
 31
0.0
  0
LINE
  5
110
330
1F
100
AcDbEntity
  8
LAYER1
 62
     7
100
AcDbLine
 10
-75.24159589000003
 20
44.66352346933331
 30
0.0
 11
-75.24159589000003
 21
44.86351798933332
 31
0.0
  0
LINE
  5
111
330
1F
100
AcDbEntity
  8
LAYER1
 62
     7
100
AcDbLine
 10
-75.25656852023478
 20
44.97851483833333
 30
0.0
 11
-75.25656852023478
 21
44.95351552333332
 31
0.0
  0
ARC
  5
112
330
1F
100
AcDbEntity
  8
LAYER1
 62
     7
100
AcDbCircle
 10
-75.31659383500002
 20
44.95351552333332
 30
0.0
 40
0.0249993150000023
100
AcDbArc
 50
90.0
 51
180.0
  0
LINE
  5
113
330
1F
100
AcDbEntity
  8
LAYER1
 62
     7
100
AcDbLine
 10
-75.49158904000002
 20
45.0531662224632
 30
0.0
 11
-75.49158867118729
 21
45.05266633864466
 31
0.0
  0
LINE
  5
114
330
1F
100
AcDbEntity
  8
LAYER1
 62
     7
100
AcDbLine
 10
-75.49158867118729
 20
45.05266633864466
 30
0.0
 11
-75.49158904000002
 21
45.0521859526816
 31
0.0
  0
ELLIPSE
  5
115
330
1F
100
AcDbEntity
  8
LAYER1
 62
     7
100
AcDbEllipse
 10
-74.87274959020493
 20
44.85551820853333
 30
0.0
 11
-0.0138560267950929
 21
0.0
 31
0.0
210
0.0
220
0.0
230
1.0
 40
0.5773502691999999
 41
4.712388980379586
 42
6.283185307179586
  0
ELLIPSE
  5
116
330
1F
100
AcDbEntity
  8
LAYER1
 62
     7
100
AcDbEllipse
 10
-74.87274959020493
 20
44.67152325013332
 30
0.0
 11
-0.0138560267950929
 21
0.0
 31
0.0
210
0.0
220
0.0
230
1.0
 40
0.5773502691999999
 41
0.0
 42
1.5707963268
  0
LINE
  5
117
330
1F
100
AcDbEntity
  8
LAYER1
 62
     7
100
AcDbLine
 10
-75.44159041000003
 20
44.90402214485125
 30
0.0
 11
-75.44159041000003
 21
45.06593354866038
 31
0.0
  0
LINE
  5
118
330
1F
100
AcDbEntity
  8
LAYER1
 62
     7
100
AcDbLine
 10
-75.44159041000003
 20
45.06593354866038
 30
0.0
 11
-75.44159041000003
 21
45.08087986659642
 31
0.0
  0
LINE
  5
119
330
1F
100
AcDbEntity
  8
LAYER1
 62
     7
100
AcDbLine
 10
-75.46658972500003
 20
44.43152982613331
 30
0.0
 11
-75.46658972500003
 21
45.11051122153332
 31
0.0
  0
LINE
  5
11A
330
1F
100
AcDbEntity
  8
LAYER1
 62
     7
100
AcDbLine
 10
-75.49158904000002
 20
44.44152955213332
 30
0.0
 11
-75.49158904000002
 21
45.08551190653333
 31
0.0
  0
LINE
  5
11B
330
1F
100
AcDbEntity
  8
LAYER1
 62
     7
100
AcDbLine
 10
-75.34159315000002
 20
44.60852497633331
 30
0.0
 11
-75.34159315000002
 21
44.57352593533332
 31
0.0
  0
LINE
  5
11C
330
1F
100
AcDbEntity
  8
LAYER1
 62
     7
100
AcDbLine
 10
-74.25662287900002
 20
45.00208043588991
 30
0.0
 11
-74.28162219400002
 21
45.01651379713331
 31
0.0
  0
LINE
  5
11D
330
1F
100
AcDbEntity
  8
LAYER1
 62
     7
100
AcDbLine
 10
-75.36659246500002
 20
44.90351689326246
 30
0.0
 11
-75.36659246500002
 21
44.62352456540418
 31
0.0
  0
SPLINE
  5
11E
330
1F
100
AcDbEntity
  8
LAYER1
 62
     7
100
AcDbSpline
210
0.0
220
0.0
230
1.0
 70
     8
 71
     3
 72
    15
 73
    11
 74
     0
 42
0.000000001
 43
0.0
 40
0.0
 40
0.0
 40
0.0
 40
0.0
 40
0.1168157022
 40
0.2348680888
 40
0.3551930131
 40
0.478473076
 40
0.604959777
 40
0.7344694254
 40
0.8664358641
 40
1.0
 40
1.0
 40
1.0
 40
1.0
 10
-75.24342689214416
 20
44.54852662033332
 30
0.0
 10
-75.242088122855
 20
44.54852662047898
 30
0.0
 10
-75.23938785950959
 20
44.54881539833397
 30
0.0
 10
-75.23549427681085
 20
44.55009595546228
 30
0.0
 10
-75.23187706133078
 20
44.55217638339793
 30
0.0
 10
-75.22866117875154
 20
44.55498090245358
 30
0.0
 10
-75.22595250787273
 20
44.55841056653333
 30
0.0
 10
-75.22383959955539
 20
44.56234788688008
 30
0.0
 10
-75.22239099146881
 20
44.56665810813899
 30
0.0
 10
-75.22190069493087
 20
44.56967736410596
 30
0.0
 10
-75.22177685454074
 20
44.57120306145032
 30
0.0
  0
SPLINE
  5
11F
330
1F
100
AcDbEntity
  8
LAYER1
 62
     7
100
AcDbSpline
210
0.0
220
0.0
230
1.0
 70
     8
 71
     3
 72
    11
 73
     7
 74
     0
 42
0.000000001
 43
0.0
 40
0.0
 40
0.0
 40
0.0
 40
0.0
 40
0.2528371046
 40
0.5043633685
 40
0.7538619041
 40
1.0
 40
1.0
 40
1.0
 40
1.0
 10
-75.22177685055658
 20
44.9558383945668
 30
0.0
 10
-75.21586048622059
 20
44.95592686747328
 30
0.0
 10
-75.20405871451925
 20
44.95612323380922
 30
0.0
 10
-75.18642039172411
 20
44.95650178870032
 30
0.0
 10
-75.16894193144626
 20
44.95700295551129
 30
0.0
 10
-75.1573514906354
 20
44.95746643387855
 30
0.0
 10
-75.15159835594883
 20
44.95775269536942
 30
0.0
  0
SPLINE
  5
120
330
1F
100
AcDbEntity
  8
LAYER1
 62
     7
100
AcDbSpline
210
0.0
220
0.0
230
1.0
 70
     8
 71
     3
 72
    14
 73
    10
 74
     0
 42
0.000000001
 43
0.0
 40
0.0
 40
0.0
 40
0.0
 40
0.0
 40
0.1099818775
 40
0.2264088146
 40
0.3481666653
 40
0.4740675759
 40
0.6030539571
 40
0.7342186678
 40
1.0
 40
1.0
 40
1.0
 40
1.0
 10
-75.32559358840003
 20
44.91851648233332
 30
0.0
 10
-75.32466080984862
 20
44.91851648233332
 30
0.0
 10
-75.32274036143491
 20
44.91870138315666
 30
0.0
 10
-75.31985139661046
 20
44.91932726655817
 30
0.0
 10
-75.31689027614897
 20
44.92021084183573
 30
0.0
 10
-75.31387962910753
 20
44.92128116368922
 30
0.0
 10
-75.31083432453147
 20
44.92248505814254
 30
0.0
 10
-75.3067250757579
 20
44.9242207501817
 30
0.0
 10
-75.30365198965961
 20
44.92559601219141
 30
0.0
 10
-75.30159424600002
 20
44.92651626313332
 30
0.0
  0
SPLINE
  5
121
330
1F
100
AcDbEntity
  8
LAYER1
 62
     7
100
AcDbSpline
210
0.0
220
0.0
230
1.0
 70
     8
 71
     3
 72
    14
 73
    10
 74
     0
 42
0.000000001
 43
0.0
 40
0.0
 40
0.0
 40
0.0
 40
0.0
 40
0.2654989176
 40
0.3965973279
 40
0.5255891757
 40
0.6515681049
 40
0.7734570648
 40
0.8900122988
 40
1.0
 40
1.0
 40
1.0
 40
1.0
 10
-75.25437955173777
 20
44.92651626313332
 30
0.0
 10
-75.25228917173624
 20
44.92560362915987
 30
0.0
 10
-75.24916765235483
 20
44.92423754596558
 30
0.0
 10
-75.24499662871487
 20
44.92250751327529
 30
0.0
 10
-75.2419056090371
 20
44.92130371124068
 30
0.0
 10
-75.23885048546633
 20
44.92022971616107
 30
0.0
 10
-75.23584666734013
 20
44.9193394499448
 30
0.0
 10
-75.2329180937821
 20
44.91870566202367
 30
0.0
 10
-75.23097174707016
 20
44.91851648233332
 30
0.0
 10
-75.23002683555198
 20
44.91851648233332
 30
0.0
  0
SPLINE
  5
122
330
1F
100
AcDbEntity
  8
LAYER1
 62
     7
100
AcDbSpline
210
0.0
220
0.0
230
1.0
 70
     8
 71
     3
 72
    14
 73
    10
 74
     0
 42
0.000000001
 43
0.0
 40
0.0
 40
0.0
 40
0.0
 40
0.0
 40
0.109987815
 40
0.2265428461
 40
0.3484318154
 40
0.4744107422
 40
0.6034026098
 40
0.7345010401
 40
1.0
 40
1.0
 40
1.0
 40
1.0
 10
-75.23002683676849
 20
44.60852497633331
 30
0.0
 10
-75.23097174921182
 20
44.60852497633331
 30
0.0
 10
-75.23291809496317
 20
44.60833579582803
 30
0.0
 10
-75.23584666788342
 20
44.60770200921002
 30
0.0
 10
-75.23885048399393
 20
44.60681174257643
 30
0.0
 10
-75.24190560766706
 20
44.60573774770941
 30
0.0
 10
-75.24499662757711
 20
44.60453394588346
 30
0.0
 10
-75.2491676518509
 20
44.60280391353568
 30
0.0
 10
-75.25228917137011
 20
44.60143782977448
 30
0.0
 10
-75.25437955150944
 20
44.60052519553332
 30
0.0
  0
SPLINE
  5
123
330
1F
100
AcDbEntity
  8
LAYER1
 62
     7
100
AcDbSpline
210
0.0
220
0.0
230
1.0
 70
     8
 71
     3
 72
    14
 73
    10
 74
     0
 42
0.000000001
 43
0.0
 40
0.0
 40
0.0
 40
0.0
 40
0.0
 40
0.2657813322
 40
0.3969460429
 40
0.5259324241
 40
0.6518333347
 40
0.7735911854
 40
0.8900181225
 40
1.0
 40
1.0
 40
1.0
 40
1.0
 10
-75.30159424600002
 20
44.60052519553332
 30
0.0
 10
-75.30365198965961
 20
44.60144544647524
 30
0.0
 10
-75.3067250757579
 20
44.60282070848494
 30
0.0
 10
-75.31083432453147
 20
44.60455640052409
 30
0.0
 10
-75.31387962910753
 20
44.60576029497743
 30
0.0
 10
-75.31689027614897
 20
44.60683061683091
 30
0.0
 10
-75.31985139661046
 20
44.60771419210847
 30
0.0
 10
-75.32274036143491
 20
44.60834007550997
 30
0.0
 10
-75.32466080984862
 20
44.60852497633331
 30
0.0
 10
-75.32559358840003
 20
44.60852497633331
 30
0.0
  0
SPLINE
  5
124
330
1F
100
AcDbEntity
  8
LAYER1
 62
     7
100
AcDbSpline
210
0.0
220
0.0
230
1.0
 70
     8
 71
     3
 72
    15
 73
    11
 74
     0
 42
0.000000001
 43
0.0
 40
0.0
 40
0.0
 40
0.0
 40
0.0
 40
0.130165949
 40
0.2594573305
 40
0.3869845398
 40
0.5121771767
 40
0.6351575692
 40
0.7567423623
 40
0.8780391251
 40
1.0
 40
1.0
 40
1.0
 40
1.0
 10
-75.17464360941679
 20
44.97851483833333
 30
0.0
 10
-75.17313656464403
 20
44.97851483833333
 30
0.0
 10
-75.1701270642995
 20
44.97830530727148
 30
0.0
 10
-75.16574243741402
 20
44.97728712486729
 30
0.0
 10
-75.16166020774655
 20
44.97551380248521
 30
0.0
 10
-75.15807855810692
 20
44.97298717153963
 30
0.0
 10
-75.1551811412109
 20
44.96978677857926
 30
0.0
 10
-75.15309271329761
 20
44.9660610008731
 30
0.0
 10
-75.15185936765127
 20
44.96198967756033
 30
0.0
 10
-75.15159835592917
 20
44.95916474174128
 30
0.0
 10
-75.15159835594883
 20
44.95775269427102
 30
0.0
  0
SPLINE
  5
125
330
1F
100
AcDbEntity
  8
LAYER1
 62
     7
100
AcDbSpline
210
0.0
220
0.0
230
1.0
 70
     8
 71
     3
 72
    15
 73
    11
 74
     0
 42
0.000000001
 43
0.0
 40
0.0
 40
0.0
 40
0.0
 40
0.0
 40
0.1168157022
 40
0.2348680882
 40
0.3551930116
 40
0.4784730738
 40
0.6049597746
 40
0.7344694233
 40
0.866435863
 40
1.0
 40
1.0
 40
1.0
 40
1.0
 10
-75.24342689236067
 20
44.97851483833333
 30
0.0
 10
-75.24208812280776
 20
44.97851483836482
 30
0.0
 10
-75.23938785890725
 20
44.97822606081297
 30
0.0
 10
-75.23549427530301
 20
44.97694550392481
 30
0.0
 10
-75.23187705890172
 20
44.97486507600097
 30
0.0
 10
-75.22866117545635
 20
44.97206055670124
 30
0.0
 10
-75.22595250384134
 20
44.96863089211756
 30
0.0
 10
-75.22383959499646
 20
44.96469357104249
 30
0.0
 10
-75.22239098667367
 20
44.96038334888991
 30
0.0
 10
-75.2219006902066
 20
44.95736409227727
 30
0.0
 10
-75.22177684991092
 20
44.95583839461403
 30
0.0
  0
SPLINE
  5
126
330
1F
100
AcDbEntity
  8
LAYER1
 62
     7
100
AcDbSpline
210
0.0
220
0.0
230
1.0
 70
     8
 71
     3
 72
    15
 73
    11
 74
     0
 42
0.000000001
 43
0.0
 40
0.0
 40
0.0
 40
0.0
 40
0.0
 40
0.124781679
 40
0.2495968842
 40
0.3744733956
 40
0.4994301016
 40
0.6244735693
 40
0.7495971573
 40
0.8747821398
 40
1.0
 40
1.0
 40
1.0
 40
1.0
 10
-75.49158904000002
 20
44.4860184399036
 30
0.0
 10
-75.49158904000002
 20
44.48439061346002
 30
0.0
 10
-75.49126663472
 20
44.48112544066838
 30
0.0
 10
-75.48983451115811
 20
44.476423334797
 30
0.0
 10
-75.48750901044157
 20
44.47208826178992
 30
0.0
 10
-75.48437961101229
 20
44.46828929788438
 30
0.0
 10
-75.48056688118868
 20
44.46517169886012
 30
0.0
 10
-75.47621675766486
 20
44.4628553136379
 30
0.0
 10
-75.47149883781341
 20
44.46142896655553
 30
0.0
 10
-75.46822324159871
 20
44.46110791000626
 30
0.0
 10
-75.46658972500003
 20
44.46110791000626
 30
0.0
  0
SPLINE
  5
127
330
1F
100
AcDbEntity
  8
LAYER1
 62
     7
100
AcDbSpline
210
0.0
220
0.0
230
1.0
 70
     8
 71
     3
 72
    16
 73
    12
 74
     0
 42
0.000000001
 43
0.0
 40
0.0
 40
0.0
 40
0.0
 40
0.0
 40
0.2697419449
 40
0.4025121391
 40
0.5326031797
 40
0.6588529745
 40
0.779867846
 40
0.8379291172
 40
0.8940793521
 40
0.9481385706
 40
1.0
 40
1.0
 40
1.0
 40
1.0
 10
-75.30159424600002
 20
44.43152982613331
 30
0.0
 10
-75.29815923416129
 20
44.42981232021395
 30
0.0
 10
-75.29303390004813
 20
44.42724779533819
 30
0.0
 10
-75.28618163945087
 20
44.423999143397
 30
0.0
 10
-75.28112055414022
 20
44.42174388922022
 30
0.0
 10
-75.27613624138343
 20
44.41973484643879
 30
0.0
 10
-75.27201862456354
 20
44.41832872843992
 30
0.0
 10
-75.2687854601468
 20
44.41745083712078
 30
0.0
 10
-75.2664416534673
 20
44.41694740532465
 30
0.0
 10
-75.26415605107482
 20
44.41661633173884
 30
0.0
 10
-75.26264744257719
 20
44.41653023713332
 30
0.0
 10
-75.26190906373846
 20
44.41653023713332
 30
0.0
  0
SPLINE
  5
128
330
1F
100
AcDbEntity
  8
LAYER1
 62
     7
100
AcDbSpline
210
0.0
220
0.0
230
1.0
 70
     8
 71
     3
 72
    16
 73
    12
 74
     0
 42
0.000000001
 43
0.0
 40
0.0
 40
0.0
 40
0.0
 40
0.0
 40
0.0518616567
 40
0.1059208385
 40
0.1620709347
 40
0.2201321553
 40
0.3411470483
 40
0.467396838
 40
0.597487873
 40
0.7302580642
 40
1.0
 40
1.0
 40
1.0
 40
1.0
 10
-75.26190906373846
 20
45.11051122153332
 30
0.0
 10
-75.26264744581331
 20
45.11051122153332
 30
0.0
 10
-75.26415605698018
 20
45.1104251257743
 30
0.0
 10
-75.26644166011673
 20
45.11009405240108
 30
0.0
 10
-75.26878546348924
 20
45.10959062047895
 30
0.0
 10
-75.27201862562652
 20
45.10871272996295
 30
0.0
 10
-75.27613624193066
 20
45.10730661192076
 30
0.0
 10
-75.28112055483706
 20
45.10529756912753
 30
0.0
 10
-75.28618163997447
 20
45.10304231504523
 30
0.0
 10
-75.29303390032764
 20
45.09979366319065
 30
0.0
 10
-75.29815923427941
 20
45.09722913839363
 30
0.0
 10
-75.30159424600002
 20
45.09551163253332
 30
0.0
  0
SPLINE
  5
129
330
1F
100
AcDbEntity
  8
LAYER1
 62
     7
100
AcDbSpline
210
0.0
220
0.0
230
1.0
 70
     8
 71
     3
 72
    19
 73
    15
 74
     0
 42
0.000000001
 43
0.0
 40
0.0
 40
0.0
 40
0.0
 40
0.0
 40
0.1822677008
 40
0.3573212868
 40
0.5185652661
 40
0.6605553595
 40
0.7230781028
 40
0.779497875
 40
0.8296667047
 40
0.8736276933
 40
0.9116830229
 40
0.9445095149
 40
0.9733227885
 40
1.0
 40
1.0
 40
1.0
 40
1.0
 10
-75.46658972500003
 20
44.98701460543332
 30
0.0
 10
-75.46824849347372
 20
44.98701460543332
 30
0.0
 10
-75.47150109816488
 20
44.98692622845334
 30
0.0
 10
-75.47620670439701
 20
44.98653180467029
 30
0.0
 10
-75.48051538378084
 20
44.98589265551418
 30
0.0
 10
-75.48376580715775
 20
44.98515086343433
 30
0.0
 10
-75.48603114987307
 20
44.98443433530788
 30
0.0
 10
-75.48746680816093
 20
44.98387619777057
 30
0.0
 10
-75.48870201790187
 20
44.98327923132868
 30
0.0
 10
-75.48972892381113
 20
44.98264758369929
 30
0.0
 10
-75.49054198010757
 20
44.98198454889844
 30
0.0
 10
-75.49113659121242
 20
44.9812907310946
 30
0.0
 10
-75.49150467037481
 20
44.98056555157531
 30
0.0
 10
-75.49158904000002
 20
44.98005745120237
 30
0.0
 10
-75.49158904000002
 20
44.9798146691973
 30
0.0
  0
SPLINE
  5
12A
330
1F
100
AcDbEntity
  8
LAYER1
 62
     7
100
AcDbSpline
210
0.0
220
0.0
230
1.0
 70
     8
 71
     3
 72
    10
 73
     6
 74
     0
 42
0.000000001
 43
0.0
 40
0.0
 40
0.0
 40
0.0
 40
0.0
 40
0.2354270169
 40
0.4839480266
 40
1.0
 40
1.0
 40
1.0
 40
1.0
 10
-75.48074447634606
 20
44.42092351503767
 30
0.0
 10
-75.4796002314512
 20
44.42170952264614
 30
0.0
 10
-75.47727978525364
 20
44.42337131754086
 30
0.0
 10
-75.47255836940352
 20
44.42690385468762
 30
0.0
 10
-75.46899536018225
 20
44.42966642913274
 30
0.0
 10
-75.46658972500003
 20
44.43152982613331
 30
0.0
  0
SPLINE
  5
12B
330
1F
100
AcDbEntity
  8
LAYER1
 62
     7
100
AcDbSpline
210
0.0
220
0.0
230
1.0
 70
     8
 71
     3
 72
    19
 73
    15
 74
     0
 42
0.000000001
 43
0.0
 40
0.0
 40
0.0
 40
0.0
 40
0.0
 40
0.1822677008
 40
0.3573212868
 40
0.5185652661
 40
0.6605553595
 40
0.7230781028
 40
0.779497875
 40
0.8296667047
 40
0.8736276933
 40
0.9116830229
 40
0.9445095149
 40
0.9733227885
 40
1.0
 40
1.0
 40
1.0
 40
1.0
 10
-75.46658972500003
 20
44.54002685323331
 30
0.0
 10
-75.46824849347372
 20
44.54002685323331
 30
0.0
 10
-75.47150109816488
 20
44.5401152302133
 30
0.0
 10
-75.47620670439701
 20
44.54050965399634
 30
0.0
 10
-75.48051538378084
 20
44.54114880315247
 30
0.0
 10
-75.48376580715775
 20
44.54189059523232
 30
0.0
 10
-75.48603114987307
 20
44.54260712335875
 30
0.0
 10
-75.48746680816093
 20
44.54316526089607
 30
0.0
 10
-75.48870201790187
 20
44.54376222733796
 30
0.0
 10
-75.48972892381113
 20
44.54439387496734
 30
0.0
 10
-75.49054198010757
 20
44.54505690976819
 30
0.0
 10
-75.49113659121242
 20
44.54575072757203
 30
0.0
 10
-75.49150467037481
 20
44.54647590709133
 30
0.0
 10
-75.49158904000002
 20
44.54698400746427
 30
0.0
 10
-75.49158904000002
 20
44.54722678946935
 30
0.0
  0
SPLINE
  5
12C
330
1F
100
AcDbEntity
  8
LAYER1
 62
     7
100
AcDbSpline
210
0.0
220
0.0
230
1.0
 70
     8
 71
     3
 72
    15
 73
    11
 74
     0
 42
0.000000001
 43
0.0
 40
0.0
 40
0.0
 40
0.0
 40
0.0
 40
0.124781679
 40
0.2495968842
 40
0.3744733956
 40
0.4994301016
 40
0.6244735693
 40
0.7495971573
 40
0.8747821398
 40
1.0
 40
1.0
 40
1.0
 40
1.0
 10
-75.49158904000002
 20
45.04102301876303
 30
0.0
 10
-75.49158904000002
 20
45.04265084520661
 30
0.0
 10
-75.49126663472
 20
45.04591601799827
 30
0.0
 10
-75.48983451115811
 20
45.05061812386964
 30
0.0
 10
-75.48750901044157
 20
45.05495319687672
 30
0.0
 10
-75.48437961101229
 20
45.05875216078226
 30
0.0
 10
-75.48056688118868
 20
45.06186975980653
 30
0.0
 10
-75.47621675766486
 20
45.06418614502874
 30
0.0
 10
-75.47149883781341
 20
45.06561249211111
 30
0.0
 10
-75.46822324159871
 20
45.06593354866038
 30
0.0
 10
-75.46658972500003
 20
45.06593354866038
 30
0.0
  0
SPLINE
  5
12D
330
1F
100
AcDbEntity
  8
LAYER1
 62
     7
100
AcDbSpline
210
0.0
220
0.0
230
1.0
 70
     8
 71
     3
 72
    15
 73
    11
 74
     0
 42
0.000000001
 43
0.0
 40
0.0
 40
0.0
 40
0.0
 40
0.0
 40
0.1219608752
 40
0.2432576379
 40
0.3648424306
 40
0.4878228231
 40
0.6130154604
 40
0.7405426698
 40
0.8698340511
 40
1.0
 40
1.0
 40
1.0
 40
1.0
 10
-75.15159835596066
 20
44.5692887641279
 30
0.0
 10
-75.15159835606696
 20
44.56787671666946
 30
0.0
 10
-75.15185936812762
 20
44.56505178093703
 30
0.0
 10
-75.1530927135102
 20
44.56098045762425
 30
0.0
 10
-75.15518114132115
 20
44.55725467989841
 30
0.0
 10
-75.15807855824471
 20
44.55405428701677
 30
0.0
 10
-75.1616602079434
 20
44.55152765624048
 30
0.0
 10
-75.16574243754394
 20
44.54975433386628
 30
0.0
 10
-75.17012706434676
 20
44.54873615132036
 30
0.0
 10
-75.17313656465977
 20
44.54852662032151
 30
0.0
 10
-75.17464360941679
 20
44.54852662033332
 30
0.0
  0
SPLINE
  5
12E
330
1F
100
AcDbEntity
  8
LAYER1
 62
     7
100
AcDbSpline
210
0.0
220
0.0
230
1.0
 70
     8
 71
     3
 72
    11
 73
     7
 74
     0
 42
0.000000001
 43
0.0
 40
0.0
 40
0.0
 40
0.0
 40
0.0
 40
0.2461380949
 40
0.4956366354
 40
0.747162897
 40
1.0
 40
1.0
 40
1.0
 40
1.0
 10
-75.15159835596066
 20
44.56928876329722
 30
0.0
 10
-75.15735149065902
 20
44.56957502451644
 30
0.0
 10
-75.16894193157619
 20
44.57003850377738
 30
0.0
 10
-75.18642039199577
 20
44.57053966952145
 30
0.0
 10
-75.20405871485784
 20
44.57091822575502
 30
0.0
 10
-75.21586048657097
 20
44.57111458899263
 30
0.0
 10
-75.22177685089122
 20
44.57120306193455
 30
0.0
  0
SPLINE
  5
12F
330
1F
100
AcDbEntity
  8
LAYER1
 62
     7
100
AcDbSpline
210
0.0
220
0.0
230
1.0
 70
     8
 71
     3
 72
    19
 73
    15
 74
     0
 42
0.000000001
 43
0.0
 40
0.0
 40
0.0
 40
0.0
 40
0.0
 40
0.0331242642
 40
0.0677920093
 40
0.105324738
 40
0.1467387393
 40
0.1927229583
 40
0.2437029342
 40
0.299887781
 40
0.3613111417
 40
0.4992006934
 40
0.6549037889
 40
0.8238907625
 40
1.0
 40
1.0
 40
1.0
 40
1.0
 10
-75.49158904000002
 20
45.08551190653333
 30
0.0
 10
-75.49158901327635
 20
45.08582933679612
 30
0.0
 10
-75.49151000948048
 20
45.08648134872185
 30
0.0
 10
-75.49116069334335
 20
45.08743628779989
 30
0.0
 10
-75.49058673229472
 20
45.08836881251179
 30
0.0
 10
-75.48979479852186
 20
45.08927272172825
 30
0.0
 10
-75.48878972933316
 20
45.09014300857859
 30
0.0
 10
-75.48757674445568
 20
45.09097375476829
 30
0.0
 10
-75.4861620951709
 20
45.09175824953631
 30
0.0
 10
-75.48393090091359
 20
45.09277163417433
 30
0.0
 10
-75.48069284848904
 20
45.09384619577384
 30
0.0
 10
-75.47635480440982
 20
45.09478909415031
 30
0.0
 10
-75.47158606846654
 20
45.09537877393359
 30
0.0
 10
-75.46827738217428
 20
45.09551166161914
 30
0.0
 10
-75.46658972500003
 20
45.09551163253332
 30
0.0
  0
ARC
  5
130
330
1F
100
AcDbEntity
  8
LAYER1
 62
     7
100
AcDbCircle
 10
-74.59771296589525
 20
35.34697036986324
 30
0.0
 40
9.629112130763628
100
AcDbArc
 50
93.7159506653
 51
93.92343196129995
  0
ARC
  5
131
330
1F
100
AcDbEntity
  8
LAYER1
 62
     7
100
AcDbCircle
 10
-75.09160000000003
 20
44.68852278433332
 30
0.0
 40
0.0249993150000023
100
AcDbArc
 50
270.0
 51
0.0
  0
ARC
  5
132
330
1F
100
AcDbEntity
  8
LAYER1
 62
     7
100
AcDbCircle
 10
-74.98660287700002
 20
44.48352840133332
 30
0.0
 40
0.0199994519999933
100
AcDbArc
 50
270.0
 51
0.0
  0
ARC
  5
133
330
1F
100
AcDbEntity
  8
LAYER1
 62
     7
100
AcDbCircle
 10
-74.53461526180003
 20
44.67152325013332
 30
0.0
 40
0.0079997808000059
100
AcDbArc
 50
270.0
 51
0.0
  0
ARC
  5
134
330
1F
100
AcDbEntity
  8
LAYER1
 62
     7
100
AcDbCircle
 10
-74.53461526180003
 20
44.85551820853333
 30
0.0
 40
0.0079997808000059
100
AcDbArc
 50
0.0
 51
90.0
  0
ARC
  5
135
330
1F
100
AcDbEntity
  8
LAYER1
 62
     7
100
AcDbCircle
 10
-75.74632661852274
 20
44.90318633437907
 30
0.0
 40
0.52718563952083
100
AcDbArc
 50
1.666351561399407
 51
5.73190632509943
  0
ARC
  5
136
330
1F
100
AcDbEntity
  8
LAYER1
 62
     7
100
AcDbCircle
 10
-75.71779350390268
 20
44.90253155135211
 30
0.0
 40
0.4640342201375992
100
AcDbArc
 50
2.962788792599945
 51
6.307887810401064
  0
ENDSEC
  0
SECTION
  2
OBJECTS
  0
DICTIONARY
  5
C
330
0
100
AcDbDictionary
  3
ACAD_GROUP
350
D
  3
ACAD_LAYOUT
350
1A
  3
ACAD_MATERIAL
350
43
  3
ACAD_MLEADERSTYLE
350
6B
  3
ACAD_MLINESTYLE
350
17
  3
ACAD_PLOTSETTINGS
350
19
  3
ACAD_SCALELIST
350
47
  3
ACAD_VISUALSTYLE
350
2A
  3
ACDBHEADERROUNDTRIPXREC
350
137
  3
ACDBVARIABLEDICTIONARY
350
158
  0
DICTIONARY
  5
15F
330
8
100
AcDbDictionary
280
     1
  3
ACAD_XREC_ROUNDTRIP
360
160
  0
DICTIONARY
  5
D
102
{ACAD_REACTORS
330
C
102
}
330
C
100
AcDbDictionary
  0
DICTIONARY
  5
1A
102
{ACAD_REACTORS
330
C
102
}
330
C
100
AcDbDictionary
  0
DICTIONARY
  5
43
102
{ACAD_REACTORS
330
C
102
}
330
C
100
AcDbDictionary
  3
BYBLOCK
350
45
  3
BYLAYER
350
44
  3
GLOBAL
350
46
  0
DICTIONARY
  5
6B
102
{ACAD_REACTORS
330
C
102
}
330
C
100
AcDbDictionary
  3
STANDARD
350
6C
  0
DICTIONARY
  5
17
102
{ACAD_REACTORS
330
C
102
}
330
C
100
AcDbDictionary
  3
STANDARD
350
18
  0
DICTIONARY
  5
19
102
{ACAD_REACTORS
330
C
102
}
330
C
100
AcDbDictionary
  0
DICTIONARY
  5
47
102
{ACAD_REACTORS
330
C
102
}
330
C
100
AcDbDictionary
  3
A0
350
48
  3
A1
350
49
  3
A2
350
4A
  3
A3
350
4B
  3
A4
350
4C
  3
A5
350
4D
  3
A6
350
4E
  3
A7
350
4F
  3
A8
350
50
  3
A9
350
51
  3
B0
350
52
  3
B1
350
53
  3
B2
350
54
  3
B3
350
55
  3
B4
350
56
  3
B5
350
57
  3
B6
350
58
  3
B7
350
59
  3
B8
350
5A
  3
B9
350
5B
  3
C0
350
5C
  3
C1
350
5D
  3
C2
350
5E
  3
C3
350
5F
  3
C4
350
60
  3
C5
350
61
  3
C6
350
62
  3
C7
350
63
  3
C8
350
64
  3
C9
350
65
  3
D0
350
66
  3
D1
350
67
  3
D2
350
68
  0
DICTIONARY
  5
2A
102
{ACAD_REACTORS
330
C
102
}
330
C
100
AcDbDictionary
  3
2DWIREFRAME
350
2F
  3
BASIC
350
32
  3
BRIGHTEN
350
36
  3
COLORCHANGE
350
3A
  3
CONCEPTUAL
350
34
  3
DIM
350
35
  3
EDGECOLOROFF
350
3D
  3
FACEPATTERN
350
39
  3
FLAT
350
2B
  3
FLATWITHEDGES
350
2C
  3
GOURAUD
350
2D
  3
GOURAUDWITHEDGES
350
2E
  3
HIDDEN
350
31
  3
JITTEROFF
350
3B
  3
LINEPATTERN
350
38
  3
OVERHANGOFF
350
3C
  3
REALISTIC
350
33
  3
SHADED
350
42
  3
SHADED_WITH_EDGES
350
41
  3
SHADES_OF_GRAY
350
3E
  3
SKETCHY
350
3F
  3
THICKEN
350
37
  3
WIREFRAME
350
30
  3
X-RAY
350
40
  0
DICTIONARY
  5
137
102
{ACAD_REACTORS
330
C
102
}
330
C
100
AcDbDictionary
  3
CEPSNID
350
141
  3
CEPSNTYPE
350
140
  3
DIMSTYLEDATA
350
157
  3
FINGERPRINTGUID
350
142
  3
HYPERLINKBASE
350
13A
  3
INSUNITS
350
13F
  3
LAYOUTDICT
350
13C
  3
LWETCUNION
350
13E
  3
PLOTSETDICT
350
13D
  3
PSVPSCALE
350
144
  3
PUCSBASE
350
147
  3
PUCSORGBACK
350
14D
  3
PUCSORGBOTTOM
350
149
  3
PUCSORGFRONT
350
14C
  3
PUCSORGLEFT
350
14A
  3
PUCSORGRIGHT
350
14B
  3
PUCSORGTOP
350
148
  3
PUCSORTHOREF
350
145
  3
PUCSORTHOVIEW
350
146
  3
STYLESHEET
350
13B
  3
TSTACKALIGN
350
138
  3
TSTACKSIZE
350
139
  3
UCSBASE
350
150
  3
UCSORGBACK
350
156
  3
UCSORGBOTTOM
350
152
  3
UCSORGFRONT
350
155
  3
UCSORGLEFT
350
153
  3
UCSORGRIGHT
350
154
  3
UCSORGTOP
350
151
  3
UCSORTHOREF
350
14E
  3
UCSORTHOVIEW
350
14F
  3
VERSIONGUID
350
143
  0
DICTIONARY
  5
158
102
{ACAD_REACTORS
330
C
102
}
330
C
100
AcDbDictionary
  3
CANNOSCALE
350
161
  3
CMLEADERSTYLE
350
15A
  3
CTABLESTYLE
350
159
  3
DIMASSOC
350
15D
  3
HIDETEXT
350
15E
  3
MSLTSCALE
350
162
  0
XRECORD
  5
160
102
{ACAD_REACTORS
330
15F
102
}
330
15F
100
AcDbXrecord
102
VTR_0.000_0.000_1.000_1.000_VISUALSTYLE
340
2F
102
VTR_0.000_0.000_1.000_1.000_GRIDDISPLAY
 70
     3
102
VTR_0.000_0.000_1.000_1.000_GRIDMAJOR
 70
     5
102
VTR_0.000_0.000_1.000_1.000_DEFAULTLIGHTING
280
     1
102
VTR_0.000_0.000_1.000_1.000_DEFAULTLIGHTINGTYPE
 70
     1
102
VTR_0.000_0.000_1.000_1.000_BRIGHTNESS
141
0.0
102
VTR_0.000_0.000_1.000_1.000_CONTRAST
142
0.0
  0
MATERIAL
  5
45
102
{ACAD_REACTORS
330
43
102
}
102
{ACAD_XDICTIONARY
360
165
102
}
330
43
100
AcDbMaterial
  1
BYBLOCK
  0
MATERIAL
  5
44
102
{ACAD_REACTORS
330
43
102
}
102
{ACAD_XDICTIONARY
360
163
102
}
330
43
100
AcDbMaterial
  1
BYLAYER
  0
MATERIAL
  5
46
102
{ACAD_REACTORS
330
43
102
}
102
{ACAD_XDICTIONARY
360
167
102
}
330
43
100
AcDbMaterial
  1
GLOBAL
  0
ACAD_PROXY_OBJECT
  5
6C
102
{ACAD_REACTORS
330
6B
102
}
330
6B
100
AcDbProxyObject
 90
      499
 91
      505
 93
      610
310
40901902A4063FBFFFFFE056BD1B81E855B9FC0AD7A3703D0AD73F4214DD185B99185C9900AD7A3703D0AC73F90141901A02B5E8DC0F42B1CFC02B5E8DC0F42B1CFE5764000000000000300FC0
340
14
340
0
340
11
340
0
 94
        0
1001
ACAD_MLEADERVER
1070
     2
  0
MLINESTYLE
  5
18
102
{ACAD_REACTORS
330
17
102
}
330
17
100
AcDbMlineStyle
  2
Standard
 70
     0
  3

 62
   256
 51
90.0
 52
90.0
 71
     2
 49
0.5
 62
   256
  6
BYLAYER
 49
-0.5
 62
   256
  6
BYLAYER
  0
ACAD_PROXY_OBJECT
  5
48
102
{ACAD_REACTORS
330
47
102
}
330
47
100
AcDbProxyObject
 90
      499
 91
      503
 93
       41
310
903313A31580
  0
ACAD_PROXY_OBJECT
  5
49
102
{ACAD_REACTORS
330
47
102
}
330
47
100
AcDbProxyObject
 90
      499
 91
      503
 93
      105
310
903313A324000000000000004000
  0
ACAD_PROXY_OBJECT
  5
4A
102
{ACAD_REACTORS
330
47
102
}
330
47
100
AcDbProxyObject
 90
      499
 91
      503
 93
      105
310
903313A344000000000000104000
  0
ACAD_PROXY_OBJECT
  5
4B
102
{ACAD_REACTORS
330
47
102
}
330
47
100
AcDbProxyObject
 90
      499
 91
      503
 93
      105
310
903313A354000000000000144000
  0
ACAD_PROXY_OBJECT
  5
4C
102
{ACAD_REACTORS
330
47
102
}
330
47
100
AcDbProxyObject
 90
      499
 91
      503
 93
      105
310
903313A384000000000000204000
  0
ACAD_PROXY_OBJECT
  5
4D
102
{ACAD_REACTORS
330
47
102
}
330
47
100
AcDbProxyObject
 90
      499
 91
      503
 93
      113
310
904313A31304000000000000244000
  0
ACAD_PROXY_OBJECT
  5
4E
102
{ACAD_REACTORS
330
47
102
}
330
47
100
AcDbProxyObject
 90
      499
 91
      503
 93
      113
310
904313A31364000000000000304000
  0
ACAD_PROXY_OBJECT
  5
4F
102
{ACAD_REACTORS
330
47
102
}
330
47
100
AcDbProxyObject
 90
      499
 91
      503
 93
      113
310
904313A32304000000000000344000
  0
ACAD_PROXY_OBJECT
  5
50
102
{ACAD_REACTORS
330
47
102
}
330
47
100
AcDbProxyObject
 90
      499
 91
      503
 93
      113
310
904313A333040000000000003E4000
  0
ACAD_PROXY_OBJECT
  5
51
102
{ACAD_REACTORS
330
47
102
}
330
47
100
AcDbProxyObject
 90
      499
 91
      503
 93
      113
310
904313A34304000000000000444000
  0
ACAD_PROXY_OBJECT
  5
52
102
{ACAD_REACTORS
330
47
102
}
330
47
100
AcDbProxyObject
 90
      499
 91
      503
 93
      113
310
904313A35304000000000000494000
  0
ACAD_PROXY_OBJECT
  5
53
102
{ACAD_REACTORS
330
47
102
}
330
47
100
AcDbProxyObject
 90
      499
 91
      503
 93
      121
310
905313A3130304000000000000594000
  0
ACAD_PROXY_OBJECT
  5
54
102
{ACAD_REACTORS
330
47
102
}
330
47
100
AcDbProxyObject
 90
      499
 91
      503
 93
      105
310
903323A310000000000000010100
  0
ACAD_PROXY_OBJECT
  5
55
102
{ACAD_REACTORS
330
47
102
}
330
47
100
AcDbProxyObject
 90
      499
 91
      503
 93
      105
310
903343A310000000000000410100
  0
ACAD_PROXY_OBJECT
  5
56
102
{ACAD_REACTORS
330
47
102
}
330
47
100
AcDbProxyObject
 90
      499
 91
      503
 93
      105
310
903383A310000000000000810100
  0
ACAD_PROXY_OBJECT
  5
57
102
{ACAD_REACTORS
330
47
102
}
330
47
100
AcDbProxyObject
 90
      499
 91
      503
 93
      113
310
90431303A310000000000000910100
  0
ACAD_PROXY_OBJECT
  5
58
102
{ACAD_REACTORS
330
47
102
}
330
47
100
AcDbProxyObject
 90
      499
 91
      503
 93
      121
310
9053130303A310000000000001650100
  0
ACAD_PROXY_OBJECT
  5
59
102
{ACAD_REACTORS
330
47
102
}
330
47
100
AcDbProxyObject
 90
      499
 91
      503
 93
      257
310
90E312F31323822203D2031272D3022000000000000200FC000000000000284000
  0
ACAD_PROXY_OBJECT
  5
5A
102
{ACAD_REACTORS
330
47
102
}
330
47
100
AcDbProxyObject
 90
      499
 91
      503
 93
      249
310
90D312F363422203D2031272D3022000000000000240FC000000000000284000
  0
ACAD_PROXY_OBJECT
  5
5B
102
{ACAD_REACTORS
330
47
102
}
330
47
100
AcDbProxyObject
 90
      499
 91
      503
 93
      249
310
90D312F333222203D2031272D3022000000000000280FC000000000000284000
  0
ACAD_PROXY_OBJECT
  5
5C
102
{ACAD_REACTORS
330
47
102
}
330
47
100
AcDbProxyObject
 90
      499
 91
      503
 93
      249
310
90D312F313622203D2031272D30220000000000002C0FC000000000000284000
  0
ACAD_PROXY_OBJECT
  5
5D
102
{ACAD_REACTORS
330
47
102
}
330
47
100
AcDbProxyObject
 90
      499
 91
      503
 93
      249
310
90D332F333222203D2031272D30220000000000002E0FC000000000000284000
  0
ACAD_PROXY_OBJECT
  5
5E
102
{ACAD_REACTORS
330
47
102
}
330
47
100
AcDbProxyObject
 90
      499
 91
      503
 93
      241
310
90C312F3822203D2031272D3022000000000000300FC000000000000284000
  0
ACAD_PROXY_OBJECT
  5
5F
102
{ACAD_REACTORS
330
47
102
}
330
47
100
AcDbProxyObject
 90
      499
 91
      503
 93
      249
310
90D332F313622203D2031272D3022000000000000320FC000000000000284000
  0
ACAD_PROXY_OBJECT
  5
60
102
{ACAD_REACTORS
330
47
102
}
330
47
100
AcDbProxyObject
 90
      499
 91
      503
 93
      241
310
90C312F3422203D2031272D3022000000000000340FC000000000000284000
  0
ACAD_PROXY_OBJECT
  5
61
102
{ACAD_REACTORS
330
47
102
}
330
47
100
AcDbProxyObject
 90
      499
 91
      503
 93
      241
310
90C332F3822203D2031272D3022000000000000360FC000000000000284000
  0
ACAD_PROXY_OBJECT
  5
62
102
{ACAD_REACTORS
330
47
102
}
330
47
100
AcDbProxyObject
 90
      499
 91
      503
 93
      241
310
90C312F3222203D2031272D3022000000000000380FC000000000000284000
  0
ACAD_PROXY_OBJECT
  5
63
102
{ACAD_REACTORS
330
47
102
}
330
47
100
AcDbProxyObject
 90
      499
 91
      503
 93
      241
310
90C332F3422203D2031272D30220000000000003A0FC000000000000284000
  0
ACAD_PROXY_OBJECT
  5
64
102
{ACAD_REACTORS
330
47
102
}
330
47
100
AcDbProxyObject
 90
      499
 91
      503
 93
      161
310
90A3122203D2031272D30224000000000000284000
  0
ACAD_PROXY_OBJECT
  5
65
102
{ACAD_REACTORS
330
47
102
}
330
47
100
AcDbProxyObject
 90
      499
 91
      503
 93
      257
310
90E312D312F3222203D2031272D30220000000000003E0FC000000000000284000
  0
ACAD_PROXY_OBJECT
  5
66
102
{ACAD_REACTORS
330
47
102
}
330
47
100
AcDbProxyObject
 90
      499
 91
      503
 93
      225
310
90A3322203D2031272D302200000000000002100000000000000284000
  0
ACAD_PROXY_OBJECT
  5
67
102
{ACAD_REACTORS
330
47
102
}
330
47
100
AcDbProxyObject
 90
      499
 91
      503
 93
      225
310
90A3622203D2031272D302200000000000006100000000000000284000
  0
ACAD_PROXY_OBJECT
  5
68
102
{ACAD_REACTORS
330
47
102
}
330
47
100
AcDbProxyObject
 90
      499
 91
      503
 93
      249
310
90D31272D3022203D2031272D30220000000000000A100000000000000284000
  0
ACAD_PROXY_OBJECT
  5
2F
102
{ACAD_REACTORS
330
2A
102
}
330
2A
100
AcDbProxyObject
 90
      499
 91
      501
 93
      436
310
42CC9915DA5C99599C985B595049028333333333333E33F0000000000000F90107901411070040501600405405064090741402480A0340
1001
ACAD
1000
AcDbSavedByObjectVersion
1070
     0
  0
ACAD_PROXY_OBJECT
  5
32
102
{ACAD_REACTORS
330
2A
102
}
330
2A
100
AcDbProxyObject
 90
      499
 91
      501
 93
      388
310
4150985CDA58D07406404333333333333E33F0000000000000F90107A41107004050150841D405064090741402480A0350
1001
ACAD
1000
AcDbSavedByObjectVersion
1070
     0
  0
ACAD_PROXY_OBJECT
  5
36
102
{ACAD_REACTORS
330
2A
102
}
330
2A
100
AcDbProxyObject
 90
      499
 91
      501
 93
      428
310
42109C9A59DA1D195B90C409028333333333333E33F0000000000000F9010790141107004050150841D405064090741402480A029950
1001
ACAD
1000
AcDbSavedByObjectVersion
1070
     0
  0
ACAD_PROXY_OBJECT
  5
3A
102
{ACAD_REACTORS
330
2A
102
}
330
2A
100
AcDbProxyObject
 90
      499
 91
      501
 93
      452
310
42D0DBDB1BDC90DA185B99D95104090240C333333333333E33F0000000000000F90108901411070040501508421405064090741402480A0350
1001
ACAD
1000
AcDbSavedByObjectVersion
1070
     0
  0
ACAD_PROXY_OBJECT
  5
34
102
{ACAD_REACTORS
330
2A
102
}
330
2A
100
AcDbProxyObject
 90
      499
 91
      501
 93
      500
310
4290DBDB98D95C1D1D585B10940D028333333333333E33F0000000000000F90107902409070040501000000000018199010841D405064090740C02480A0340
1001
ACAD
1000
AcDbSavedByObjectVersion
1070
     0
  0
ACAD_PROXY_OBJECT
  5
35
102
{ACAD_REACTORS
330
2A
102
}
330
2A
100
AcDbProxyObject
 90
      499
 91
      501
 93
      412
310
40D11A5B50B409028333333333333E33F0000000000000F9010790141107004050150841D405064090741402480A02677FFFFFD0
1001
ACAD
1000
AcDbSavedByObjectVersion
1070
     0
  0
ACAD_PROXY_OBJECT
  5
3D
102
{ACAD_REACTORS
330
2A
102
}
330
2A
100
AcDbProxyObject
 90
      499
 91
      501
 93
      452
310
43115919D950DBDB1BDC93D999916409028333333333333E33F0000000000000F9010790141107004050150841D405064090741402480A0350
1001
ACAD
1000
AcDbSavedByObjectVersion
1070
     0
  0
ACAD_PROXY_OBJECT
  5
39
102
{ACAD_REACTORS
330
2A
102
}
330
2A
100
AcDbProxyObject
 90
      499
 91
      501
 93
      444
310
42D19858D95C185D1D195C9B90F409028333333333333E33F0000000000000F9010790141107004050150841D405064090741402480A0350
1001
ACAD
1000
AcDbSavedByObjectVersion
1070
     0
  0
ACAD_PROXY_OBJECT
  5
2B
102
{ACAD_REACTORS
330
2A
102
}
330
2A
100
AcDbProxyObject
 90
      499
 91
      501
 93
      380
310
41119B185D240901404333333333333E33F0000000000000F9010740A907004050150841D405064090741402480A1B50
1001
ACAD
1000
AcDbSavedByObjectVersion
1070
     0
  0
ACAD_PROXY_OBJECT
  5
2C
102
{ACAD_REACTORS
330
2A
102
}
330
2A
100
AcDbProxyObject
 90
      499
 91
      501
 93
      468
310
43519B185D15DA5D1A115919D95CD0140901404333333333333E33F0000000000000F90107409019070040501600405405064090741402480A1B50
1001
ACAD
1000
AcDbSavedByObjectVersion
1070
     0
  0
ACAD_PROXY_OBJECT
  5
2D
102
{ACAD_REACTORS
330
2A
102
}
330
2A
100
AcDbProxyObject
 90
      499
 91
      501
 93
      404
310
41D1DBDD5C985D5910240902404333333333333E33F0000000000000F9010740A9070040501641D405064090741402480A1B50
1001
ACAD
1000
AcDbSavedByObjectVersion
1070
     0
  0
ACAD_PROXY_OBJECT
  5
2E
102
{ACAD_REACTORS
330
2A
102
}
330
2A
100
AcDbProxyObject
 90
      499
 91
      501
 93
      492
310
4411DBDD5C985D5915DA5D1A115919D95CD0340902404333333333333E33F0000000000000F90107409019070040501600405405064090741402480A1B50
1001
ACAD
1000
AcDbSavedByObjectVersion
1070
     0
  0
ACAD_PROXY_OBJECT
  5
31
102
{ACAD_REACTORS
330
2A
102
}
330
2A
100
AcDbProxyObject
 90
      499
 91
      501
 93
      476
310
41921A5919195B90640502408333333333333E33F0000000000000F901079024090700405020000000000001110200405405064090740C02480A0340
1001
ACAD
1000
AcDbSavedByObjectVersion
1070
     0
  0
ACAD_PROXY_OBJECT
  5
3B
102
{ACAD_REACTORS
330
2A
102
}
330
2A
100
AcDbProxyObject
 90
      499
 91
      501
 93
      428
310
42529A5D1D195C93D999914409028333333333333E33F0000000000000F9010790141107004050150A41D405064090741402480A0350
1001
ACAD
1000
AcDbSavedByObjectVersion
1070
     0
  0
ACAD_PROXY_OBJECT
  5
38
102
{ACAD_REACTORS
330
2A
102
}
330
2A
100
AcDbProxyObject
 90
      499
 91
      501
 93
      444
310
42D31A5B995C185D1D195C9B90E409028333333333333E33F0000000000000F9010790141107004050750841D405064090741402483A0350
1001
ACAD
1000
AcDbSavedByObjectVersion
1070
     0
  0
ACAD_PROXY_OBJECT
  5
3C
102
{ACAD_REACTORS
330
2A
102
}
330
2A
100
AcDbProxyObject
 90
      499
 91
      501
 93
      444
310
42D3DD995C9A185B99D3D999915409028333333333333E33F0000000000000F9010790141107004050150941D405064090741402480A0350
1001
ACAD
1000
AcDbSavedByObjectVersion
1070
     0
  0
ACAD_PROXY_OBJECT
  5
33
102
{ACAD_REACTORS
330
2A
102
}
330
2A
100
AcDbProxyObject
 90
      499
 91
      501
 93
      428
310
425499585B1A5CDD1A58D08409038333333333333E33F0000000000000F9010740A907004050150800405405064090740C02480A1B40
1001
ACAD
1000
AcDbSavedByObjectVersion
1070
     0
  0
ACAD_PROXY_OBJECT
  5
42
102
{ACAD_REACTORS
330
2A
102
}
330
2A
100
AcDbProxyObject
 90
      499
 91
      501
 93
      420
310
4194DA1859195911B40902404333333333333E33F0000000000000F9010740A41107004050150800405405064090840C02480A0B40
1001
ACAD
1000
AcDbSavedByObjectVersion
1070
     0
  0
ACAD_PROXY_OBJECT
  5
41
102
{ACAD_REACTORS
330
2A
102
}
330
2A
100
AcDbProxyObject
 90
      499
 91
      501
 93
      516
310
4454DA18591959081DDA5D1A08195919D95CD1A40902404333333333333E33F0000000000000F901074090142907004050250800405405064090740C02480A0B40
1001
ACAD
1000
AcDbSavedByObjectVersion
1070
     0
  0
ACAD_PROXY_OBJECT
  5
3E
102
{ACAD_REACTORS
330
2A
102
}
330
2A
100
AcDbProxyObject
 90
      499
 91
      501
 93
      532
310
4394DA1859195CC81BD98811DC985E5174090240C333333333333E33F0000000000000F901079024090741D01000000000000111010841D405064090740C02480A0340
1001
ACAD
1000
AcDbSavedByObjectVersion
1070
     0
  0
ACAD_PROXY_OBJECT
  5
3F
102
{ACAD_REACTORS
330
2A
102
}
330
2A
100
AcDbProxyObject
 90
      499
 91
      501
 93
      476
310
41D4DAD95D18DA1E51840502408333333333333E33F0000000000000F901079024090741D01000000000000111010B41D405064090741802480A0340
1001
ACAD
1000
AcDbSavedByObjectVersion
1070
     0
  0
ACAD_PROXY_OBJECT
  5
37
102
{ACAD_REACTORS
330
2A
102
}
330
2A
100
AcDbProxyObject
 90
      499
 91
      501
 93
      412
310
41D51A1A58DAD95B90D409028333333333333E33F0000000000000F9010790141107004050150C41D405064090741402480A0350
1001
ACAD
1000
AcDbSavedByObjectVersion
1070
     0
  0
ACAD_PROXY_OBJECT
  5
30
102
{ACAD_REACTORS
330
2A
102
}
330
2A
100
AcDbProxyObject
 90
      499
 91
      501
 93
      420
310
4255DA5C99599C985B595059028333333333333E33F0000000000000F90107901411070040501600405405064090740C02480A0340
1001
ACAD
1000
AcDbSavedByObjectVersion
1070
     0
  0
ACAD_PROXY_OBJECT
  5
40
102
{ACAD_REACTORS
330
2A
102
}
330
2A
100
AcDbProxyObject
 90
      499
 91
      501
 93
      404
310
41560B54985E51940902404000000000000E03F0000000000000F9010740501907004050150841D405064090740C02480A1B40
1001
ACAD
1000
AcDbSavedByObjectVersion
1070
     0
  0
XRECORD
  5
141
102
{ACAD_REACTORS
330
137
102
}
330
137
100
AcDbXrecord
340
0
  0
XRECORD
  5
140
102
{ACAD_REACTORS
330
137
102
}
330
137
100
AcDbXrecord
 90
        0
  0
XRECORD
  5
157
102
{ACAD_REACTORS
330
137
102
}
330
137
100
AcDbXrecord
1000
DSTYLE
1002
{
1070
   340
340
11
1002
}
  0
XRECORD
  5
142
102
{ACAD_REACTORS
330
137
102
}
330
137
100
AcDbXrecord
  1
{2F8E9396-7F39-40E9-8251-88C3CF2F7EFC}
  0
XRECORD
  5
13A
102
{ACAD_REACTORS
330
137
102
}
330
137
100
AcDbXrecord
  1

  0
XRECORD
  5
13F
102
{ACAD_REACTORS
330
137
102
}
330
137
100
AcDbXrecord
 90
        1
  0
XRECORD
  5
13C
102
{ACAD_REACTORS
330
137
102
}
330
137
100
AcDbXrecord
340
1A
  0
XRECORD
  5
13E
102
{ACAD_REACTORS
330
137
102
}
330
137
100
AcDbXrecord
 90
    10781
  0
XRECORD
  5
13D
102
{ACAD_REACTORS
330
137
102
}
330
137
100
AcDbXrecord
340
19
  0
XRECORD
  5
144
102
{ACAD_REACTORS
330
137
102
}
330
137
100
AcDbXrecord
 40
0.0
  0
XRECORD
  5
147
102
{ACAD_REACTORS
330
137
102
}
330
137
100
AcDbXrecord
340
0
  0
XRECORD
  5
14D
102
{ACAD_REACTORS
330
137
102
}
330
137
100
AcDbXrecord
 10
0.0
 20
0.0
 30
0.0
  0
XRECORD
  5
149
102
{ACAD_REACTORS
330
137
102
}
330
137
100
AcDbXrecord
 10
0.0
 20
0.0
 30
0.0
  0
XRECORD
  5
14C
102
{ACAD_REACTORS
330
137
102
}
330
137
100
AcDbXrecord
 10
0.0
 20
0.0
 30
0.0
  0
XRECORD
  5
14A
102
{ACAD_REACTORS
330
137
102
}
330
137
100
AcDbXrecord
 10
0.0
 20
0.0
 30
0.0
  0
XRECORD
  5
14B
102
{ACAD_REACTORS
330
137
102
}
330
137
100
AcDbXrecord
 10
0.0
 20
0.0
 30
0.0
  0
XRECORD
  5
148
102
{ACAD_REACTORS
330
137
102
}
330
137
100
AcDbXrecord
 10
0.0
 20
0.0
 30
0.0
  0
XRECORD
  5
145
102
{ACAD_REACTORS
330
137
102
}
330
137
100
AcDbXrecord
340
0
  0
XRECORD
  5
146
102
{ACAD_REACTORS
330
137
102
}
330
137
100
AcDbXrecord
 70
     0
  0
XRECORD
  5
13B
102
{ACAD_REACTORS
330
137
102
}
330
137
100
AcDbXrecord
  1

  0
XRECORD
  5
138
102
{ACAD_REACTORS
330
137
102
}
330
137
100
AcDbXrecord
 90
        1
  0
XRECORD
  5
139
102
{ACAD_REACTORS
330
137
102
}
330
137
100
AcDbXrecord
 90
       70
  0
XRECORD
  5
150
102
{ACAD_REACTORS
330
137
102
}
330
137
100
AcDbXrecord
340
0
  0
XRECORD
  5
156
102
{ACAD_REACTORS
330
137
102
}
330
137
100
AcDbXrecord
 10
0.0
 20
0.0
 30
0.0
  0
XRECORD
  5
152
102
{ACAD_REACTORS
330
137
102
}
330
137
100
AcDbXrecord
 10
0.0
 20
0.0
 30
0.0
  0
XRECORD
  5
155
102
{ACAD_REACTORS
330
137
102
}
330
137
100
AcDbXrecord
 10
0.0
 20
0.0
 30
0.0
  0
XRECORD
  5
153
102
{ACAD_REACTORS
330
137
102
}
330
137
100
AcDbXrecord
 10
0.0
 20
0.0
 30
0.0
  0
XRECORD
  5
154
102
{ACAD_REACTORS
330
137
102
}
330
137
100
AcDbXrecord
 10
0.0
 20
0.0
 30
0.0
  0
XRECORD
  5
151
102
{ACAD_REACTORS
330
137
102
}
330
137
100
AcDbXrecord
 10
0.0
 20
0.0
 30
0.0
  0
XRECORD
  5
14E
102
{ACAD_REACTORS
330
137
102
}
330
137
100
AcDbXrecord
340
0
  0
XRECORD
  5
14F
102
{ACAD_REACTORS
330
137
102
}
330
137
100
AcDbXrecord
 70
     0
  0
XRECORD
  5
143
102
{ACAD_REACTORS
330
137
102
}
330
137
100
AcDbXrecord
  1
{FAEB1C32-E019-11D5-929B-00C0DF256EC4}
  0
DICTIONARYVAR
  5
161
102
{ACAD_REACTORS
330
158
102
}
330
158
100
DictionaryVariables
280
     0
  1
1:1
  0
DICTIONARYVAR
  5
15A
102
{ACAD_REACTORS
330
158
102
}
330
158
100
DictionaryVariables
280
     0
  1
Standard
  0
DICTIONARYVAR
  5
159
102
{ACAD_REACTORS
330
158
102
}
330
158
100
DictionaryVariables
280
     0
  1
Standard
  0
DICTIONARYVAR
  5
15D
102
{ACAD_REACTORS
330
158
102
}
330
158
100
DictionaryVariables
280
     0
  1
2
  0
DICTIONARYVAR
  5
15E
102
{ACAD_REACTORS
330
158
102
}
330
158
100
DictionaryVariables
280
     0
  1
1
  0
DICTIONARYVAR
  5
162
102
{ACAD_REACTORS
330
158
102
}
330
158
100
DictionaryVariables
280
     0
  1
1
  0
DICTIONARY
  5
165
330
45
100
AcDbDictionary
280
     1
  3
ACAD_XREC_ROUNDTRIP
360
166
  0
DICTIONARY
  5
163
330
44
100
AcDbDictionary
280
     1
  3
ACAD_XREC_ROUNDTRIP
360
164
  0
DICTIONARY
  5
167
330
46
100
AcDbDictionary
280
     1
  3
ACAD_XREC_ROUNDTRIP
360
168
  0
XRECORD
  5
166
102
{ACAD_REACTORS
330
165
102
}
330
165
100
AcDbXrecord
102
MATERIAL
148
0.0
149
0.0
149
0.0
 93
        0
 94
      127
282
     0
 72
     1
 77
     1
171
     1
175
     1
179
     1
273
     0
  0
XRECORD
  5
164
102
{ACAD_REACTORS
330
163
102
}
330
163
100
AcDbXrecord
102
MATERIAL
148
0.0
149
0.0
149
0.0
 93
        0
 94
      127
282
     0
 72
     1
 77
     1
171
     1
175
     1
179
     1
273
     0
  0
XRECORD
  5
168
102
{ACAD_REACTORS
330
167
102
}
330
167
100
AcDbXrecord
102
MATERIAL
148
0.0
149
0.0
149
0.0
 93
        0
 94
      127
282
     0
 72
     1
 77
     1
171
     1
175
     1
179
     1
273
     0
  0
ENDSEC
  0
EOF
